  0
SECTION
  2
HEADER
  9
$ACADVER
  1
AC1009
  9
$DWGCODEPAGE
  3
ansi_1252
  9
$INSBASE
 10
0.0
 20
0.0
 30
0.0
  9
$EXTMIN
 10
-8.891647612938197
 20
-6.379154629177517
 30
0.0
  9
$EXTMAX
 10
7.199933973078394
 20
6.379154629177517
 30
0.0
  9
$LIMMIN
 10
0.0
 20
0.0
  9
$LIMMAX
 10
12.0
 20
9.0
  9
$ORTHOMODE
 70
     0
  9
$REGENMODE
 70
     1
  9
$FILLMODE
 70
     1
  9
$QTEXTMODE
 70
     0
  9
$MIRRTEXT
 70
     1
  9
$DRAGMODE
 70
     2
  9
$LTSCALE
 40
1.0
  9
$OSMODE
 70
    37
  9
$ATTMODE
 70
     1
  9
$TEXTSIZE
 40
0.2
  9
$TRACEWID
 40
0.05
  9
$TEXTSTYLE
  7
STANDARD
  9
$CLAYER
  8
0
  9
$CELTYPE
  6
BYLAYER
  9
$CECOLOR
 62
   256
  9
$DIMSCALE
 40
1.0
  9
$DIMASZ
 40
0.18
  9
$DIMEXO
 40
0.0625
  9
$DIMDLI
 40
0.38
  9
$DIMRND
 40
0.0
  9
$DIMDLE
 40
0.0
  9
$DIMEXE
 40
0.18
  9
$DIMTP
 40
0.0
  9
$DIMTM
 40
0.0
  9
$DIMTXT
 40
0.18
  9
$DIMCEN
 40
0.09
  9
$DIMTSZ
 40
0.0
  9
$DIMTOL
 70
     0
  9
$DIMLIM
 70
     0
  9
$DIMTIH
 70
     1
  9
$DIMTOH
 70
     1
  9
$DIMSE1
 70
     0
  9
$DIMSE2
 70
     0
  9
$DIMTAD
 70
     0
  9
$DIMZIN
 70
     0
  9
$DIMBLK
  1

  9
$DIMASO
 70
     1
  9
$DIMSHO
 70
     1
  9
$DIMPOST
  1

  9
$DIMAPOST
  1

  9
$DIMALT
 70
     0
  9
$DIMALTD
 70
     2
  9
$DIMALTF
 40
25.4
  9
$DIMLFAC
 40
1.0
  9
$DIMTOFL
 70
     0
  9
$DIMTVP
 40
0.0
  9
$DIMTIX
 70
     0
  9
$DIMSOXD
 70
     0
  9
$DIMSAH
 70
     0
  9
$DIMBLK1
  1

  9
$DIMBLK2
  1

  9
$DIMSTYLE
  2
STANDARD
  9
$DIMCLRD
 70
     0
  9
$DIMCLRE
 70
     0
  9
$DIMCLRT
 70
     0
  9
$DIMTFAC
 40
1.0
  9
$DIMGAP
 40
0.09
  9
$LUNITS
 70
     2
  9
$LUPREC
 70
     4
  9
$SKETCHINC
 40
0.1
  9
$FILLETRAD
 40
0.5
  9
$AUNITS
 70
     0
  9
$AUPREC
 70
     0
  9
$MENU
  1
.
  9
$ELEVATION
 40
0.0
  9
$PELEVATION
 40
0.0
  9
$THICKNESS
 40
0.0
  9
$LIMCHECK
 70
     0
  9
$CHAMFERA
 40
0.0
  9
$CHAMFERB
 40
0.0
  9
$SKPOLY
 70
     0
  9
$TDCREATE
 40
2454910.5
  9
$TDUPDATE
 40
2459210.474942477
  9
$TDINDWG
 40
0.0000000116
  9
$TDUSRTIMER
 40
0.0000000116
  9
$USRTIMER
 70
     1
  9
$ANGBASE
 50
0.0
  9
$ANGDIR
 70
     0
  9
$PDMODE
 70
     0
  9
$PDSIZE
 40
0.0
  9
$PLINEWID
 40
0.0
  9
$COORDS
 70
     1
  9
$SPLFRAME
 70
     0
  9
$SPLINETYPE
 70
     6
  9
$SPLINESEGS
 70
     8
  9
$ATTDIA
 70
     0
  9
$ATTREQ
 70
     1
  9
$HANDLING
 70
     1
  9
$HANDSEED
  5
E6D
  9
$SURFTAB1
 70
     6
  9
$SURFTAB2
 70
     6
  9
$SURFTYPE
 70
     6
  9
$SURFU
 70
     6
  9
$SURFV
 70
     6
  9
$UCSNAME
  2

  9
$UCSORG
 10
0.0
 20
0.0
 30
0.0
  9
$UCSXDIR
 10
1.0
 20
0.0
 30
0.0
  9
$UCSYDIR
 10
0.0
 20
1.0
 30
0.0
  9
$PUCSNAME
  2

  9
$PUCSORG
 10
0.0
 20
0.0
 30
0.0
  9
$PUCSXDIR
 10
1.0
 20
0.0
 30
0.0
  9
$PUCSYDIR
 10
0.0
 20
1.0
 30
0.0
  9
$USERI1
 70
     0
  9
$USERI2
 70
     0
  9
$USERI3
 70
     0
  9
$USERI4
 70
     0
  9
$USERI5
 70
     0
  9
$USERR1
 40
0.0
  9
$USERR2
 40
0.0
  9
$USERR3
 40
0.0
  9
$USERR4
 40
0.0
  9
$USERR5
 40
0.0
  9
$WORLDVIEW
 70
     1
  9
$SHADEDGE
 70
     3
  9
$SHADEDIF
 70
    70
  9
$TILEMODE
 70
     1
  9
$MAXACTVP
 70
    64
  9
$PLIMCHECK
 70
     0
  9
$PEXTMIN
 10
1.000000000000000E+20
 20
1.000000000000000E+20
 30
1.000000000000000E+20
  9
$PEXTMAX
 10
-1.000000000000000E+20
 20
-1.000000000000000E+20
 30
-1.000000000000000E+20
  9
$PLIMMIN
 10
0.0
 20
0.0
  9
$PLIMMAX
 10
12.0
 20
9.0
  9
$UNITMODE
 70
     0
  9
$VISRETAIN
 70
     1
  9
$PLINEGEN
 70
     0
  9
$PSLTSCALE
 70
     1
  0
ENDSEC
  0
SECTION
  2
TABLES
  0
TABLE
  2
VPORT
 70
     1
  0
VPORT
  2
*ACTIVE
 70
     0
 10
0.0
 20
0.0
 11
1.0
 21
1.0
 12
10.42990654205607
 22
4.5
 13
0.0
 23
0.0
 14
0.5
 24
0.5
 15
0.5
 25
0.5
 16
0.0
 26
0.0
 36
1.0
 17
0.0
 27
0.0
 37
0.0
 40
9.0
 41
1.972972972850329
 42
50.0
 43
0.0
 44
0.0
 50
0.0
 51
0.0
 71
     0
 72
   100
 73
     1
 74
     3
 75
     0
 76
     0
 77
     0
 78
     0
  0
ENDTAB
  0
TABLE
  2
LTYPE
 70
     2
  0
LTYPE
  2
CONTINUOUS
 70
     0
  3
Solid line
 72
    65
 73
     0
 40
0.0
  0
LTYPE
  2
CONTINUOUS2
 70
     0
  3
Solid Line
 72
    65
 73
     0
 40
0.0
  0
ENDTAB
  0
TABLE
  2
LAYER
 70
     2
  0
LAYER
  2
0
 70
     0
 62
     7
  6
CONTINUOUS
  0
LAYER
  2
PROFILE
 70
     0
 62
     7
  6
CONTINUOUS
  0
ENDTAB
  0
TABLE
  2
STYLE
 70
     1
  0
STYLE
  2
STANDARD
 70
     0
 40
0.0
 41
1.0
 50
0.0
 71
     0
 42
0.2
  3
txt
  4

  0
ENDTAB
  0
TABLE
  2
VIEW
 70
     0
  0
ENDTAB
  0
TABLE
  2
UCS
 70
     0
  0
ENDTAB
  0
TABLE
  2
APPID
 70
     1
  0
APPID
  2
ACAD
 70
     0
  0
ENDTAB
  0
TABLE
  2
DIMSTYLE
 70
     1
  0
DIMSTYLE
  2
STANDARD
 70
     0
  3

  4

  5

  6

  7

 40
1.0
 41
0.18
 42
0.0625
 43
0.38
 44
0.18
 45
0.0
 46
0.0
 47
0.0
 48
0.0
140
0.18
141
0.09
142
0.0
143
25.4
144
1.0
145
0.0
146
1.0
147
0.09
 71
     0
 72
     0
 73
     1
 74
     1
 75
     0
 76
     0
 77
     0
 78
     0
170
     0
171
     2
172
     0
173
     0
174
     0
175
     0
176
     0
177
     0
178
     0
  0
ENDTAB
  0
ENDSEC
  0
SECTION
  2
BLOCKS
  0
BLOCK
  8
0
  2
$MODEL_SPACE
 70
     0
 10
0.0
 20
0.0
 30
0.0
  3
$MODEL_SPACE
  1

  0
ENDBLK
  5
21
  8
0
  0
BLOCK
 67
     1
  8
0
  2
$PAPER_SPACE
 70
     0
 10
0.0
 20
0.0
 30
0.0
  3
$PAPER_SPACE
  1

  0
ENDBLK
  5
1D
 67
     1
  8
0
  0
ENDSEC
  0
SECTION
  2
ENTITIES
  0
POLYLINE
  5
70
  8
PROFILE
 66
     1
 10
0.0
 20
0.0
 30
0.0
 70
     1
  0
VERTEX
  5
148
  8
PROFILE
 10
6.425000658410539
 20
1.162510342068142
 30
0.0
  0
VERTEX
  5
149
  8
PROFILE
 10
6.464978685754289
 20
1.137503729926213
 30
0.0
  0
VERTEX
  5
14A
  8
PROFILE
 10
6.508320428375818
 20
1.115833706325955
 30
0.0
  0
VERTEX
  5
14B
  8
PROFILE
 10
6.553328769847177
 20
1.100838555230034
 30
0.0
  0
VERTEX
  5
14C
  8
PROFILE
 10
6.601649963966096
 20
1.092493693033852
 30
0.0
  0
VERTEX
  5
14D
  8
PROFILE
 10
6.798328973297693
 20
1.06750996907552
 30
0.0
  0
VERTEX
  5
14E
  8
PROFILE
 10
6.834994147993875
 20
1.059166802300347
 30
0.0
  0
VERTEX
  5
14F
  8
PROFILE
 10
6.868322734148386
 20
1.044171651204426
 30
0.0
  0
VERTEX
  5
150
  8
PROFILE
 10
6.898311340919221
 20
1.022500779893662
 30
0.0
  0
VERTEX
  5
151
  8
PROFILE
 10
6.923318800771654
 20
0.9941575792100683
 30
0.0
  0
VERTEX
  5
152
  8
PROFILE
 10
6.941649692698739
 20
0.9624972873263862
 30
0.0
  0
VERTEX
  5
153
  8
PROFILE
 10
6.95166284916575
 20
0.9258321126302076
 30
0.0
  0
VERTEX
  5
154
  8
PROFILE
 10
6.956669427399255
 20
0.8891669379340255
 30
0.0
  0
VERTEX
  5
155
  8
PROFILE
 10
6.956669427399255
 20
-0.8874994913736987
 30
0.0
  0
VERTEX
  5
156
  8
PROFILE
 10
6.953309102963495
 20
-0.9208263821072058
 30
0.0
  0
VERTEX
  5
157
  8
PROFILE
 10
6.943317986969568
 20
-0.9558232625325522
 30
0.0
  0
VERTEX
  5
158
  8
PROFILE
 10
6.926657084734323
 20
-0.9858381483289924
 30
0.0
  0
VERTEX
  5
159
  8
PROFILE
 10
6.904986213423562
 20
-1.01249016655816
 30
0.0
  0
VERTEX
  5
15A
  8
PROFILE
 10
6.878308763879289
 20
-1.035829332139757
 30
0.0
  0
VERTEX
  5
15B
  8
PROFILE
 10
6.84665016741662
 20
-1.052492777506511
 30
0.0
  0
VERTEX
  5
15C
  8
PROFILE
 10
6.813321581262102
 20
-1.062504238552518
 30
0.0
  0
VERTEX
  5
15D
  8
PROFILE
 10
6.778326396257761
 20
-1.06748792860243
 30
0.0
  0
VERTEX
  5
15E
  8
PROFILE
 10
5.046669156131898
 20
-1.092496236165365
 30
0.0
  0
VERTEX
  5
15F
  8
PROFILE
 10
4.996654236427034
 20
-1.095832824707031
 30
0.0
  0
VERTEX
  5
160
  8
PROFILE
 10
4.948329651466096
 20
-1.105823092990451
 30
0.0
  0
VERTEX
  5
161
  8
PROFILE
 10
4.899984721453073
 20
-1.119171142578125
 30
0.0
  0
VERTEX
  5
162
  8
PROFILE
 10
4.854998420454812
 20
-1.139172871907552
 30
0.0
  0
VERTEX
  5
163
  8
PROFILE
 10
4.811658373254289
 20
-1.164156595865886
 30
0.0
  0
VERTEX
  5
164
  8
PROFILE
 10
4.708337721670091
 20
-1.225829230414497
 30
0.0
  0
VERTEX
  5
165
  8
PROFILE
 10
4.599988451379289
 20
-1.282496134440105
 30
0.0
  0
VERTEX
  5
166
  8
PROFILE
 10
4.491659526140573
 20
-1.334156460232206
 30
0.0
  0
VERTEX
  5
167
  8
PROFILE
 10
4.438331753788148
 20
-1.36583964029948
 30
0.0
  0
VERTEX
  5
168
  8
PROFILE
 10
4.389985128354121
 20
-1.40250481499566
 30
0.0
  0
VERTEX
  5
169
  8
PROFILE
 10
4.345000522776866
 20
-1.44415283203125
 30
0.0
  0
VERTEX
  5
16A
  8
PROFILE
 10
4.303328769847178
 20
-1.489162868923612
 30
0.0
  0
VERTEX
  5
16B
  8
PROFILE
 10
4.268331889421825
 20
-1.537507798936632
 30
0.0
  0
VERTEX
  5
16C
  8
PROFILE
 10
4.236649557065059
 20
-1.590838114420574
 30
0.0
  0
VERTEX
  5
16D
  8
PROFILE
 10
4.201652676639712
 20
-1.667504204644098
 30
0.0
  0
VERTEX
  5
16E
  8
PROFILE
 10
4.175000658410541
 20
-1.747486538357206
 30
0.0
  0
VERTEX
  5
16F
  8
PROFILE
 10
4.15332978709978
 20
-1.82916005452474
 30
0.0
  0
VERTEX
  5
170
  8
PROFILE
 10
4.140003777985195
 20
-1.912502712673612
 30
0.0
  0
VERTEX
  5
171
  8
PROFILE
 10
4.133328905480854
 20
-1.997493320041233
 30
0.0
  0
VERTEX
  5
172
  8
PROFILE
 10
4.133328905480854
 20
-2.08250257703993
 30
0.0
  0
VERTEX
  5
173
  8
PROFILE
 10
4.14167207225603
 20
-2.165823194715711
 30
0.0
  0
VERTEX
  5
174
  8
PROFILE
 10
4.156644335168354
 20
-2.249165852864583
 30
0.0
  0
VERTEX
  5
175
  8
PROFILE
 10
4.179981805328945
 20
-2.339161343044706
 30
0.0
  0
VERTEX
  5
176
  8
PROFILE
 10
4.209997538835887
 20
-2.427486843532987
 30
0.0
  0
VERTEX
  5
177
  8
PROFILE
 10
4.244994419261241
 20
-2.512499491373699
 30
0.0
  0
VERTEX
  5
178
  8
PROFILE
 10
4.284994487078075
 20
-2.595816718207466
 30
0.0
  0
VERTEX
  5
179
  8
PROFILE
 10
4.331650777768184
 20
-2.677492777506511
 30
0.0
  0
VERTEX
  5
17A
  8
PROFILE
 10
4.381665697473041
 20
-2.755828009711372
 30
0.0
  0
VERTEX
  5
17B
  8
PROFILE
 10
4.436661764096307
 20
-2.82916005452474
 30
0.0
  0
VERTEX
  5
17C
  8
PROFILE
 10
4.523319818024255
 20
-2.920821295844184
 30
0.0
  0
VERTEX
  5
17D
  8
PROFILE
 10
4.613314460493875
 20
-3.007503085666233
 30
0.0
  0
VERTEX
  5
17E
  8
PROFILE
 10
4.709983975467836
 20
-3.08915286593967
 30
0.0
  0
VERTEX
  5
17F
  8
PROFILE
 10
4.808321784712625
 20
-3.165844387478298
 30
0.0
  0
VERTEX
  5
180
  8
PROFILE
 10
4.911664476769914
 20
-3.237505594889324
 30
0.0
  0
VERTEX
  5
181
  8
PROFILE
 10
5.018323412316789
 20
-3.30416276719835
 30
0.0
  0
VERTEX
  5
182
  8
PROFILE
 10
5.128320631826341
 20
-3.364166259765625
 30
0.0
  0
VERTEX
  5
183
  8
PROFILE
 10
5.241652744456552
 20
-3.420833163791233
 30
0.0
  0
VERTEX
  5
184
  8
PROFILE
 10
5.356654846778596
 20
-3.470824347601997
 30
0.0
  0
VERTEX
  5
185
  8
PROFILE
 10
5.604991638770784
 20
-3.559172736273872
 30
0.0
  0
VERTEX
  5
186
  8
PROFILE
 10
5.856644674252557
 20
-3.640825059678819
 30
0.0
  0
VERTEX
  5
187
  8
PROFILE
 10
6.116659526140573
 20
-3.714154561360677
 30
0.0
  0
VERTEX
  5
188
  8
PROFILE
 10
6.203315884647523
 20
-3.74416775173611
 30
0.0
  0
VERTEX
  5
189
  8
PROFILE
 10
6.286659390506898
 20
-3.779164632161458
 30
0.0
  0
VERTEX
  5
18A
  8
PROFILE
 10
6.368310866201341
 20
-3.820836385091146
 30
0.0
  0
VERTEX
  5
18B
  8
PROFILE
 10
6.446647793827211
 20
-3.867489284939235
 30
0.0
  0
VERTEX
  5
18C
  8
PROFILE
 10
6.521646437490404
 20
-3.919149610731338
 30
0.0
  0
VERTEX
  5
18D
  8
PROFILE
 10
6.574997945736932
 20
-3.960821363661025
 30
0.0
  0
VERTEX
  5
18E
  8
PROFILE
 10
6.624990824968698
 20
-4.005831400553387
 30
0.0
  0
VERTEX
  5
18F
  8
PROFILE
 10
6.669977125966966
 20
-4.055823432074654
 30
0.0
  0
VERTEX
  5
190
  8
PROFILE
 10
6.710000929677904
 20
-4.110821194118923
 30
0.0
  0
VERTEX
  5
191
  8
PROFILE
 10
6.74499781010325
 20
-4.167488098144531
 30
0.0
  0
VERTEX
  5
192
  8
PROFILE
 10
6.774988112295091
 20
-4.229159884982639
 30
0.0
  0
VERTEX
  5
193
  8
PROFILE
 10
6.798328973297693
 20
-4.29083251953125
 30
0.0
  0
VERTEX
  5
194
  8
PROFILE
 10
6.814993266374948
 20
-4.355819702148438
 30
0.0
  0
VERTEX
  5
195
  8
PROFILE
 10
6.826649285797693
 20
-4.422499338785808
 30
0.0
  0
VERTEX
  5
196
  8
PROFILE
 10
6.833324158302034
 20
-4.490823109944662
 30
0.0
  0
VERTEX
  5
197
  8
PROFILE
 10
6.834049900523
 20
-4.502889569645104
 30
0.0
  0
VERTEX
  5
198
  8
PROFILE
 10
6.834045134089354
 20
-4.5154543787019
 30
0.0
  0
VERTEX
  5
199
  8
PROFILE
 10
6.833482047823209
 20
-4.528330413325573
 30
0.0
  0
VERTEX
  5
19A
  8
PROFILE
 10
6.832532830546681
 20
-4.541330549726652
 30
0.0
  0
VERTEX
  5
19B
  8
PROFILE
 10
6.830164758250934
 20
-4.566954632703128
 30
0.0
  0
VERTEX
  5
19C
  8
PROFILE
 10
6.829090280875944
 20
-4.579204331699578
 30
0.0
  0
VERTEX
  5
19D
  8
PROFILE
 10
6.828318427779031
 20
-4.590829637315538
 30
0.0
  0
VERTEX
  5
19E
  8
PROFILE
 10
6.825767287723911
 20
-4.617137844580821
 30
0.0
  0
VERTEX
  5
19F
  8
PROFILE
 10
6.824493235889389
 20
-4.629188987273551
 30
0.0
  0
VERTEX
  5
1A0
  8
PROFILE
 10
6.822670714025065
 20
-4.641974166192803
 30
0.0
  0
VERTEX
  5
1A1
  8
PROFILE
 10
6.819887610512067
 20
-4.656595388978424
 30
0.0
  0
VERTEX
  5
1A2
  8
PROFILE
 10
6.815731813731523
 20
-4.67415466327026
 30
0.0
  0
VERTEX
  5
1A3
  8
PROFILE
 10
6.809791212064562
 20
-4.695753996708159
 30
0.0
  0
VERTEX
  5
1A4
  8
PROFILE
 10
6.801653693892312
 20
-4.722495396931967
 30
0.0
 42
-0.0504305985598347
  0
VERTEX
  5
1A5
  8
PROFILE
 10
6.746655931848046
 20
-4.847497728135851
 30
0.0
 42
-0.0626650835582672
  0
VERTEX
  5
1A6
  8
PROFILE
 10
6.709989909441362
 20
-4.90583356221517
 30
0.0
  0
VERTEX
  5
1A7
  8
PROFILE
 10
6.617493673275995
 20
-5.006662792629665
 30
0.0
  0
VERTEX
  5
1A8
  8
PROFILE
 10
6.506652134104989
 20
-5.099161359998917
 30
0.0
  0
VERTEX
  5
1A9
  8
PROFILE
 10
6.41665749163537
 20
-5.162502712673611
 30
0.0
  0
VERTEX
  5
1AA
  8
PROFILE
 10
6.324991164052904
 20
-5.2208374871148
 30
0.0
  0
VERTEX
  5
1AB
  8
PROFILE
 10
6.229993334191789
 20
-5.274167802598742
 30
0.0
  0
VERTEX
  5
1AC
  8
PROFILE
 10
6.129985535255159
 20
-5.322489844428169
 30
0.0
  0
VERTEX
  5
1AD
  8
PROFILE
 10
6.029979431739534
 20
-5.364161173502605
 30
0.0
  0
VERTEX
  5
1AE
  8
PROFILE
 10
5.946659661774255
 20
-5.392483181423611
 30
0.0
  0
VERTEX
  5
1AF
  8
PROFILE
 10
5.861647861644052
 20
-5.415821499294704
 30
0.0
  0
VERTEX
  5
1B0
  8
PROFILE
 10
5.711650574317659
 20
-5.449149661593967
 30
0.0
  0
VERTEX
  5
1B1
  8
PROFILE
 10
5.561651591570261
 20
-5.477494557698568
 30
0.0
  0
VERTEX
  5
1B2
  8
PROFILE
 10
5.409984314552034
 20
-5.497496287027996
 30
0.0
  0
VERTEX
  5
1B3
  8
PROFILE
 10
5.258317037533807
 20
-5.510823143853081
 30
0.0
  0
VERTEX
  5
1B4
  8
PROFILE
 10
5.104981466244745
 20
-5.517496320936417
 30
0.0
  0
VERTEX
  5
1B5
  8
PROFILE
 10
4.953314189226511
 20
-5.519165886773003
 30
0.0
  0
VERTEX
  5
1B6
  8
PROFILE
 10
4.800000658410539
 20
-5.512489742702908
 30
0.0
  0
VERTEX
  5
1B7
  8
PROFILE
 10
4.648333381392312
 20
-5.499164581298828
 30
0.0
  0
VERTEX
  5
1B8
  8
PROFILE
 10
4.496666104374086
 20
-5.479162851969402
 30
0.0
  0
VERTEX
  5
1B9
  8
PROFILE
 10
4.309979906457416
 20
-5.444165971544054
 30
0.0
  0
VERTEX
  5
1BA
  8
PROFILE
 10
4.123337789486934
 20
-5.400826348198784
 30
0.0
  0
VERTEX
  5
1BB
  8
PROFILE
 10
3.938319885841098
 20
-5.354148017035591
 30
0.0
  0
VERTEX
  5
1BC
  8
PROFILE
 10
3.756664002052036
 20
-5.299151526557075
 30
0.0
  0
VERTEX
  5
1BD
  8
PROFILE
 10
3.564993266374957
 20
-5.239170922173393
 30
0.0
  0
VERTEX
  5
1BE
  8
PROFILE
 10
3.374994215810718
 20
-5.172491285536026
 30
0.0
  0
VERTEX
  5
1BF
  8
PROFILE
 10
3.186660068675303
 20
-5.100829654269749
 30
0.0
  0
VERTEX
  5
1C0
  8
PROFILE
 10
3.001665900923564
 20
-5.025829315185547
 30
0.0
  0
VERTEX
  5
1C1
  8
PROFILE
 10
2.70331418922652
 20
-4.899148305257162
 30
0.0
  0
VERTEX
  5
1C2
  8
PROFILE
 10
2.401647929460895
 20
-4.779162936740452
 30
0.0
  0
VERTEX
  5
1C3
  8
PROFILE
 10
2.281662984799434
 20
-4.725832621256512
 30
0.0
  0
VERTEX
  5
1C4
  8
PROFILE
 10
2.161655999664882
 20
-4.677486419677734
 30
0.0
  0
VERTEX
  5
1C5
  8
PROFILE
 10
2.036662781348911
 20
-4.634146372477215
 30
0.0
  0
VERTEX
  5
1C6
  8
PROFILE
 10
1.911672953874954
 20
-4.597481621636284
 30
0.0
  0
VERTEX
  5
1C7
  8
PROFILE
 10
1.784991096236064
 20
-4.565821329752605
 30
0.0
  0
VERTEX
  5
1C8
  8
PROFILE
 10
1.656661289378427
 20
-4.540814717610678
 30
0.0
  0
VERTEX
  5
1C9
  8
PROFILE
 10
1.528333177941795
 20
-4.520837571885851
 30
0.0
  0
VERTEX
  5
1CA
  8
PROFILE
 10
1.398336772234329
 20
-4.505818261040581
 30
0.0
  0
VERTEX
  5
1CB
  8
PROFILE
 10
1.268314935211759
 20
-4.497497982449001
 30
0.0
  0
VERTEX
  5
1CC
  8
PROFILE
 10
1.136673971127557
 20
-4.495829688178169
 30
0.0
  0
VERTEX
  5
1CD
  8
PROFILE
 10
1.006674174578079
 20
-4.499166276719835
 30
0.0
  0
VERTEX
  5
1CE
  8
PROFILE
 10
0.8533402987100231
 20
-4.519167582194012
 30
0.0
  0
VERTEX
  5
1CF
  8
PROFILE
 10
0.7000047274209606
 20
-4.544153001573351
 30
0.0
  0
VERTEX
  5
1D0
  8
PROFILE
 10
0.5483366026922276
 20
-4.57583448621962
 30
0.0
  0
VERTEX
  5
1D1
  8
PROFILE
 10
0.3983384676553356
 20
-4.612499237060547
 30
0.0
  0
VERTEX
  5
1D2
  8
PROFILE
 10
0.2500086268892758
 20
-4.657486385769314
 30
0.0
  0
VERTEX
  5
1D3
  8
PROFILE
 10
0.103324192210458
 20
-4.707500881618923
 30
0.0
  0
VERTEX
  5
1D4
  8
PROFILE
 10
-0.0416682123034313
 20
-4.762499491373699
 30
0.0
  0
VERTEX
  5
1D5
  8
PROFILE
 10
-0.1833460687487438
 20
-4.825816684299046
 30
0.0
  0
VERTEX
  5
1D6
  8
PROFILE
 10
-0.4116573955174072
 20
-4.922486623128256
 30
0.0
  0
VERTEX
  5
1D7
  8
PROFILE
 10
-0.6383250116198376
 20
-5.024161020914715
 30
0.0
  0
VERTEX
  5
1D8
  8
PROFILE
 10
-0.8633455262140224
 20
-5.129151238335503
 30
0.0
  0
VERTEX
  5
1D9
  8
PROFILE
 10
-1.14999289898963
 20
-5.277504391140408
 30
0.0
  0
VERTEX
  5
1DA
  8
PROFILE
 10
-1.438331454219664
 20
-5.417489793565538
 30
0.0
  0
VERTEX
  5
1DB
  8
PROFILE
 10
-1.730008293412373
 20
-5.552492777506512
 30
0.0
  0
VERTEX
  5
1DC
  8
PROFILE
 10
-2.026667127233987
 20
-5.679153018527561
 30
0.0
  0
VERTEX
  5
1DD
  8
PROFILE
 10
-2.324996798457946
 20
-5.799161275227865
 30
0.0
  0
VERTEX
  5
1DE
  8
PROFILE
 10
-2.62499306853173
 20
-5.912494659423828
 30
0.0
  0
VERTEX
  5
1DF
  8
PROFILE
 10
-2.928327622568188
 20
-6.019153171115452
 30
0.0
  0
VERTEX
  5
1E0
  8
PROFILE
 10
-3.126672383039109
 20
-6.085832807752821
 30
0.0
  0
VERTEX
  5
1E1
  8
PROFILE
 10
-3.326662549597268
 20
-6.145835876464844
 30
0.0
  0
VERTEX
  5
1E2
  8
PROFILE
 10
-3.528321010426261
 20
-6.199164496527777
 30
0.0
  0
VERTEX
  5
1E3
  8
PROFILE
 10
-3.731672349130688
 20
-6.244151221381292
 30
0.0
  0
VERTEX
  5
1E4
  8
PROFILE
 10
-3.936668246211852
 20
-6.284152984619141
 30
0.0
  0
VERTEX
  5
1E5
  8
PROFILE
 10
-4.143334132984855
 20
-6.314167870415581
 30
0.0
  0
VERTEX
  5
1E6
  8
PROFILE
 10
-4.351668314028691
 20
-6.342488182915581
 30
0.0
  0
VERTEX
  5
1E7
  8
PROFILE
 10
-4.560001647362025
 20
-6.362489488389757
 30
0.0
  0
VERTEX
  5
1E8
  8
PROFILE
 10
-4.768334980695359
 20
-6.374170939127604
 30
0.0
  0
VERTEX
  5
1E9
  8
PROFILE
 10
-4.978337456010028
 20
-6.379154629177517
 30
0.0
  0
VERTEX
  5
1EA
  8
PROFILE
 10
-5.188339931324698
 20
-6.375816345214844
 30
0.0
  0
VERTEX
  5
1EB
  8
PROFILE
 10
-5.329994899586417
 20
-6.367496066623264
 30
0.0
  0
VERTEX
  5
1EC
  8
PROFILE
 10
-5.47331816211897
 20
-6.352478451199001
 30
0.0
  0
VERTEX
  5
1ED
  8
PROFILE
 10
-5.614996018564282
 20
-6.334145016140408
 30
0.0
  0
VERTEX
  5
1EE
  8
PROFILE
 10
-5.755006428449265
 20
-6.309161292182074
 30
0.0
  0
VERTEX
  5
1EF
  8
PROFILE
 10
-5.894992254729646
 20
-6.279146406385633
 30
0.0
  0
VERTEX
  5
1F0
  8
PROFILE
 10
-6.033332674922789
 20
-6.244151221381292
 30
0.0
  0
VERTEX
  5
1F1
  8
PROFILE
 10
-6.144997340992667
 20
-6.205816480848524
 30
0.0
  0
VERTEX
  5
1F2
  8
PROFILE
 10
-6.253324570810376
 20
-6.159161037868923
 30
0.0
  0
VERTEX
  5
1F3
  8
PROFILE
 10
-7.23332072220469
 20
-5.6341675652398
 30
0.0
  0
VERTEX
  5
1F4
  8
PROFILE
 10
-7.32832109519731
 20
-5.575831095377605
 30
0.0
  0
VERTEX
  5
1F5
  8
PROFILE
 10
-7.418339049705775
 20
-5.509153154161242
 30
0.0
  0
VERTEX
  5
1F6
  8
PROFILE
 10
-7.531672010046487
 20
-5.410816616482204
 30
0.0
  0
VERTEX
  5
1F7
  8
PROFILE
 10
-7.641667957990279
 20
-5.307494693332249
 30
0.0
  0
VERTEX
  5
1F8
  8
PROFILE
 10
-7.748326045826651
 20
-5.200811598036026
 30
0.0
  0
VERTEX
  5
1F9
  8
PROFILE
 10
-7.848333420908032
 20
-5.089148203531902
 30
0.0
  0
VERTEX
  5
1FA
  8
PROFILE
 10
-7.94500251202674
 20
-4.974169413248699
 30
0.0
  0
VERTEX
  5
1FB
  8
PROFILE
 10
-8.036665872622443
 20
-4.854161156548393
 30
0.0
  0
VERTEX
  5
1FC
  8
PROFILE
 10
-8.124990949255471
 20
-4.732484605577257
 30
0.0
  0
VERTEX
  5
1FD
  8
PROFILE
 10
-8.206664889278258
 20
-4.605824788411459
 30
0.0
  0
VERTEX
  5
1FE
  8
PROFILE
 10
-8.283333522633292
 20
-4.475827958848742
 30
0.0
  0
VERTEX
  5
1FF
  8
PROFILE
 10
-8.333325130299308
 20
-4.382496303982204
 30
0.0
  0
VERTEX
  5
200
  8
PROFILE
 10
-8.378333895625914
 20
-4.285825941297745
 30
0.0
  0
VERTEX
  5
201
  8
PROFILE
 10
-8.441652360117017
 20
-4.132491217719185
 30
0.0
  0
VERTEX
  5
202
  8
PROFILE
 10
-8.501656276539542
 20
-3.977486504448783
 30
0.0
  0
VERTEX
  5
203
  8
PROFILE
 10
-8.554985320457728
 20
-3.819168090820312
 30
0.0
  0
VERTEX
  5
204
  8
PROFILE
 10
-8.601662803910418
 20
-3.660824245876735
 30
0.0
  0
VERTEX
  5
205
  8
PROFILE
 10
-8.644979962927346
 20
-3.499169243706596
 30
0.0
  0
VERTEX
  5
206
  8
PROFILE
 10
-8.674993577158032
 20
-3.362497965494792
 30
0.0
  0
VERTEX
  5
207
  8
PROFILE
 10
-8.728322621076217
 20
-3.032486809624567
 30
0.0
  0
VERTEX
  5
208
  8
PROFILE
 10
-8.773331386402823
 20
-2.704167683919271
 30
0.0
  0
VERTEX
  5
209
  8
PROFILE
 10
-8.811665279225089
 20
-2.372489929199218
 30
0.0
  0
VERTEX
  5
20A
  8
PROFILE
 10
-8.84165558141693
 20
-2.042500813802083
 30
0.0
  0
VERTEX
  5
20B
  8
PROFILE
 10
-8.863326028872443
 20
-1.709153069390192
 30
0.0
  0
VERTEX
  5
20C
  8
PROFILE
 10
-8.879989898094447
 20
-1.142486572265625
 30
0.0
  0
VERTEX
  5
20D
  8
PROFILE
 10
-8.888333488724872
 20
-0.5758217705620665
 30
0.0
  0
VERTEX
  5
20E
  8
PROFILE
 10
-8.891647612938197
 20
-0.0074861314561629
 30
0.0
  0
VERTEX
  5
20F
  8
PROFILE
 10
-8.890002206850959
 20
0.5591803656684005
 30
0.0
  0
VERTEX
  5
210
  8
PROFILE
 10
-8.879989898094447
 20
1.127490573459199
 30
0.0
  0
VERTEX
  5
211
  8
PROFILE
 10
-8.863326028872443
 20
1.694157070583767
 30
0.0
  0
VERTEX
  5
212
  8
PROFILE
 10
-8.843324299543013
 20
2.005835639105904
 30
0.0
  0
VERTEX
  5
213
  8
PROFILE
 10
-8.816648545419751
 20
2.3158204820421
 30
0.0
  0
VERTEX
  5
214
  8
PROFILE
 10
-8.78332038312049
 20
2.625830756293404
 30
0.0
  0
VERTEX
  5
215
  8
PROFILE
 10
-8.741672366084899
 20
2.934171040852864
 30
0.0
  0
VERTEX
  5
216
  8
PROFILE
 10
-8.694994882632209
 20
3.242486741807725
 30
0.0
  0
VERTEX
  5
217
  8
PROFILE
 10
-8.661667144188197
 20
3.417493184407551
 30
0.0
  0
VERTEX
  5
218
  8
PROFILE
 10
-8.61999539125851
 20
3.592499627007378
 30
0.0
  0
VERTEX
  5
219
  8
PROFILE
 10
-8.571649189679732
 20
3.764169481065537
 30
0.0
  0
VERTEX
  5
21A
  8
PROFILE
 10
-8.513336879566886
 20
3.940844217936196
 30
0.0
  0
VERTEX
  5
21B
  8
PROFILE
 10
-8.448326808766105
 20
4.115826924641926
 30
0.0
  0
VERTEX
  5
21C
  8
PROFILE
 10
-8.378333895625914
 20
4.287495083279079
 30
0.0
  0
VERTEX
  5
21D
  8
PROFILE
 10
-8.333325130299308
 20
4.382496303982204
 30
0.0
  0
VERTEX
  5
21E
  8
PROFILE
 10
-8.285002240759377
 20
4.474159240722656
 30
0.0
  0
VERTEX
  5
21F
  8
PROFILE
 10
-8.204996595007424
 20
4.61083051893446
 30
0.0
  0
VERTEX
  5
220
  8
PROFILE
 10
-8.118339812645228
 20
4.742496914333767
 30
0.0
  0
VERTEX
  5
221
  8
PROFILE
 10
-8.026676452049525
 20
4.870825025770397
 30
0.0
  0
VERTEX
  5
222
  8
PROFILE
 10
-7.928338642804732
 20
4.995816548665363
 30
0.0
  0
VERTEX
  5
223
  8
PROFILE
 10
-7.826662973452521
 20
5.115823533799912
 30
0.0
  0
VERTEX
  5
224
  8
PROFILE
 10
-7.720004461760897
 20
5.232493930392796
 30
0.0
  0
VERTEX
  5
225
  8
PROFILE
 10
-7.606671501420184
 20
5.344159444173176
 30
0.0
  0
VERTEX
  5
226
  8
PROFILE
 10
-7.490000680972052
 20
5.450816684299046
 30
0.0
  0
VERTEX
  5
227
  8
PROFILE
 10
-7.369992848126998
 20
5.552492777506508
 30
0.0
  0
VERTEX
  5
228
  8
PROFILE
 10
-7.245001749087287
 20
5.649162292480469
 30
0.0
  0
VERTEX
  5
229
  8
PROFILE
 10
-7.115004495669318
 20
5.739156934950085
 30
0.0
  0
VERTEX
  5
22A
  8
PROFILE
 10
-6.981669805999179
 20
5.825837029351128
 30
0.0
  0
VERTEX
  5
22B
  8
PROFILE
 10
-6.84499810393212
 20
5.904173956976997
 30
0.0
  0
VERTEX
  5
22C
  8
PROFILE
 10
-6.706657259883727
 20
5.979174296061196
 30
0.0
  0
VERTEX
  5
22D
  8
PROFILE
 10
-6.563333573495923
 20
6.047496371799046
 30
0.0
  0
VERTEX
  5
22E
  8
PROFILE
 10
-6.418341592837287
 20
6.109170701768662
 30
0.0
  0
VERTEX
  5
22F
  8
PROFILE
 10
-6.26998801617713
 20
6.164166768391926
 30
0.0
  0
VERTEX
  5
230
  8
PROFILE
 10
-6.119989881140237
 20
6.214159647623696
 30
0.0
  0
VERTEX
  5
231
  8
PROFILE
 10
-5.968322604122008
 20
6.257499694824219
 30
0.0
  0
VERTEX
  5
232
  8
PROFILE
 10
-5.815009921016539
 20
6.294164869520397
 30
0.0
  0
VERTEX
  5
233
  8
PROFILE
 10
-5.66000520774614
 20
6.324155171712238
 30
0.0
  0
VERTEX
  5
234
  8
PROFILE
 10
-5.503332200204907
 20
6.347494337293835
 30
0.0
  0
VERTEX
  5
235
  8
PROFILE
 10
-5.344990050682338
 20
6.364156934950085
 30
0.0
  0
VERTEX
  5
236
  8
PROFILE
 10
-5.188339931324698
 20
6.375816345214844
 30
0.0
  0
VERTEX
  5
237
  8
PROFILE
 10
-4.978337456010028
 20
6.379154629177517
 30
0.0
  0
VERTEX
  5
238
  8
PROFILE
 10
-4.768334980695359
 20
6.375816345214844
 30
0.0
  0
VERTEX
  5
239
  8
PROFILE
 10
-4.560001647362025
 20
6.362488640679253
 30
0.0
  0
VERTEX
  5
23A
  8
PROFILE
 10
-4.351668314028691
 20
6.342487759060329
 30
0.0
  0
VERTEX
  5
23B
  8
PROFILE
 10
-4.143334132984855
 20
6.315835740831162
 30
0.0
  0
VERTEX
  5
23C
  8
PROFILE
 10
-3.936668246211852
 20
6.284151713053383
 30
0.0
  0
VERTEX
  5
23D
  8
PROFILE
 10
-3.731672349130688
 20
6.245818244086372
 30
0.0
  0
VERTEX
  5
23E
  8
PROFILE
 10
-3.528321010426261
 20
6.199163648817272
 30
0.0
  0
VERTEX
  5
23F
  8
PROFILE
 10
-3.326662549597268
 20
6.145835876464844
 30
0.0
  0
VERTEX
  5
240
  8
PROFILE
 10
-3.126672383039109
 20
6.087499830457897
 30
0.0
  0
VERTEX
  5
241
  8
PROFILE
 10
-2.928327622568188
 20
6.020820617675781
 30
0.0
  0
VERTEX
  5
242
  8
PROFILE
 10
-2.62499306853173
 20
5.914161682128906
 30
0.0
  0
VERTEX
  5
243
  8
PROFILE
 10
-2.324996798457946
 20
5.799161275227863
 30
0.0
  0
VERTEX
  5
244
  8
PROFILE
 10
-2.026667127233987
 20
5.67915259467231
 30
0.0
  0
VERTEX
  5
245
  8
PROFILE
 10
-1.730008293412373
 20
5.552492777506508
 30
0.0
  0
VERTEX
  5
246
  8
PROFILE
 10
-1.438331454219664
 20
5.417488098144531
 30
0.0
  0
VERTEX
  5
247
  8
PROFILE
 10
-1.14999289898963
 20
5.277503967285156
 30
0.0
  0
VERTEX
  5
248
  8
PROFILE
 10
-0.8633455262140224
 20
5.130819532606335
 30
0.0
  0
VERTEX
  5
249
  8
PROFILE
 10
-0.6383250116198376
 20
5.02416059705946
 30
0.0
  0
VERTEX
  5
24A
  8
PROFILE
 10
-0.4116573955174072
 20
4.922486199273003
 30
0.0
  0
VERTEX
  5
24B
  8
PROFILE
 10
-0.1833460687487438
 20
4.825838724772133
 30
0.0
  0
VERTEX
  5
24C
  8
PROFILE
 10
-0.0416682123034313
 20
4.764167785644531
 30
0.0
  0
VERTEX
  5
24D
  8
PROFILE
 10
0.103324192210458
 20
4.707500033908421
 30
0.0
  0
VERTEX
  5
24E
  8
PROFILE
 10
0.2500086268892758
 20
4.657483418782551
 30
0.0
  0
VERTEX
  5
24F
  8
PROFILE
 10
0.3983384676553356
 20
4.614168802897133
 30
0.0
  0
VERTEX
  5
250
  8
PROFILE
 10
0.5483366026922276
 20
4.575833638509113
 30
0.0
  0
VERTEX
  5
251
  8
PROFILE
 10
0.7000047274209606
 20
4.54417504204644
 30
0.0
  0
VERTEX
  5
252
  8
PROFILE
 10
0.8533402987100231
 20
4.519167582194008
 30
0.0
  0
VERTEX
  5
253
  8
PROFILE
 10
1.006674174578079
 20
4.500833299424912
 30
0.0
  0
VERTEX
  5
254
  8
PROFILE
 10
1.136673971127557
 20
4.495828416612412
 30
0.0
  0
VERTEX
  5
255
  8
PROFILE
 10
1.268314935211759
 20
4.497496710883247
 30
0.0
  0
VERTEX
  5
256
  8
PROFILE
 10
1.398336772234329
 20
4.505839877658417
 30
0.0
  0
VERTEX
  5
257
  8
PROFILE
 10
1.528333177941795
 20
4.520837571885849
 30
0.0
  0
VERTEX
  5
258
  8
PROFILE
 10
1.656661289378427
 20
4.540836758083767
 30
0.0
  0
VERTEX
  5
259
  8
PROFILE
 10
1.784991096236064
 20
4.565822177463104
 30
0.0
  0
VERTEX
  5
25A
  8
PROFILE
 10
1.911672953874954
 20
4.597502814398872
 30
0.0
  0
VERTEX
  5
25B
  8
PROFILE
 10
2.036662781348911
 20
4.634167989095051
 30
0.0
  0
VERTEX
  5
25C
  8
PROFILE
 10
2.161655999664882
 20
4.677485995822483
 30
0.0
  0
VERTEX
  5
25D
  8
PROFILE
 10
2.281662984799434
 20
4.725832621256508
 30
0.0
  0
VERTEX
  5
25E
  8
PROFILE
 10
2.401647929460895
 20
4.779162089029946
 30
0.0
  0
VERTEX
  5
25F
  8
PROFILE
 10
2.70331418922652
 20
4.899170769585503
 30
0.0
  0
VERTEX
  5
260
  8
PROFILE
 10
3.001665900923564
 20
5.025828891330296
 30
0.0
  0
VERTEX
  5
261
  8
PROFILE
 10
3.186660068675303
 20
5.100829230414497
 30
0.0
  0
VERTEX
  5
262
  8
PROFILE
 10
3.374994215810718
 20
5.172491285536022
 30
0.0
  0
VERTEX
  5
263
  8
PROFILE
 10
3.564993266374957
 20
5.239170498318142
 30
0.0
  0
VERTEX
  5
264
  8
PROFILE
 10
3.756664002052036
 20
5.300843132866753
 30
0.0
  0
VERTEX
  5
265
  8
PROFILE
 10
3.939989875532939
 20
5.35417260064019
 30
0.0
  0
VERTEX
  5
266
  8
PROFILE
 10
4.123337789486934
 20
5.402493794759113
 30
0.0
  0
VERTEX
  5
267
  8
PROFILE
 10
4.309979906457416
 20
5.44416724310981
 30
0.0
  0
VERTEX
  5
268
  8
PROFILE
 10
4.496666104374086
 20
5.480832417805988
 30
0.0
  0
VERTEX
  5
269
  8
PROFILE
 10
4.641658508887971
 20
5.497495015462238
 30
0.0
  0
VERTEX
  5
26A
  8
PROFILE
 10
4.788320903093698
 20
5.507484436035156
 30
0.0
  0
VERTEX
  5
26B
  8
PROFILE
 10
4.934981601878427
 20
5.512491014268662
 30
0.0
  0
VERTEX
  5
26C
  8
PROFILE
 10
5.081664341136239
 20
5.510822719997829
 30
0.0
  0
VERTEX
  5
26D
  8
PROFILE
 10
5.228326735341966
 20
5.502501593695747
 30
0.0
  0
VERTEX
  5
26E
  8
PROFILE
 10
5.373320835276864
 20
5.487483554416233
 30
0.0
  0
VERTEX
  5
26F
  8
PROFILE
 10
5.518309848948739
 20
5.467504713270397
 30
0.0
  0
VERTEX
  5
270
  8
PROFILE
 10
5.663327684777727
 20
5.442497253417969
 30
0.0
  0
VERTEX
  5
271
  8
PROFILE
 10
5.806650099599779
 20
5.40917036268446
 30
0.0
  0
VERTEX
  5
272
  8
PROFILE
 10
5.91333277104075
 20
5.379156324598522
 30
0.0
  0
VERTEX
  5
273
  8
PROFILE
 10
6.01999001116662
 20
5.344161139594185
 30
0.0
  0
VERTEX
  5
274
  8
PROFILE
 10
6.123332703223909
 20
5.300843132866753
 30
0.0
  0
VERTEX
  5
275
  8
PROFILE
 10
6.223318461687448
 20
5.252496507432724
 30
0.0
  0
VERTEX
  5
276
  8
PROFILE
 10
6.319987976661409
 20
5.197498745388454
 30
0.0
  0
VERTEX
  5
277
  8
PROFILE
 10
6.414987501943529
 20
5.137494405110676
 30
0.0
  0
VERTEX
  5
278
  8
PROFILE
 10
6.504982144413148
 20
5.070838928222656
 30
0.0
  0
VERTEX
  5
279
  8
PROFILE
 10
6.591663934235193
 20
5.000823126898872
 30
0.0
  0
VERTEX
  5
27A
  8
PROFILE
 10
6.663325989356721
 20
4.924154493543835
 30
0.0
  0
VERTEX
  5
27B
  8
PROFILE
 10
6.731646369673562
 20
4.842503017849392
 30
0.0
  0
VERTEX
  5
27C
  8
PROFILE
 10
6.791654100793352
 20
4.755824618869358
 30
0.0
  0
VERTEX
  5
27D
  8
PROFILE
 10
6.84665016741662
 20
4.659153408474392
 30
0.0
  0
VERTEX
  5
27E
  8
PROFILE
 10
6.896643046648386
 20
4.559171040852863
 30
0.0
  0
VERTEX
  5
27F
  8
PROFILE
 10
6.939983093848909
 20
4.455826653374565
 30
0.0
  0
VERTEX
  5
280
  8
PROFILE
 10
6.976648268545091
 20
4.350837707519531
 30
0.0
  0
VERTEX
  5
281
  8
PROFILE
 10
7.00833229632287
 20
4.244153340657551
 30
0.0
  0
VERTEX
  5
282
  8
PROFILE
 10
7.031646030589364
 20
4.135827806260849
 30
0.0
  0
VERTEX
  5
283
  8
PROFILE
 10
7.050002353831552
 20
4.02583228217231
 30
0.0
  0
VERTEX
  5
284
  8
PROFILE
 10
7.061660068675302
 20
3.914166768391926
 30
0.0
  0
VERTEX
  5
285
  8
PROFILE
 10
7.066666646908807
 20
3.802502950032551
 30
0.0
  0
VERTEX
  5
286
  8
PROFILE
 10
7.064994961795961
 20
3.690839131673176
 30
0.0
  0
VERTEX
  5
287
  8
PROFILE
 10
7.056653490441789
 20
3.580819871690537
 30
0.0
  0
VERTEX
  5
288
  8
PROFILE
 10
7.041659187056375
 20
3.437497456868489
 30
0.0
  0
VERTEX
  5
289
  8
PROFILE
 10
7.019986620324602
 20
3.295817905002167
 30
0.0
  0
VERTEX
  5
28A
  8
PROFILE
 10
6.991666307824602
 20
3.154163784450955
 30
0.0
  0
VERTEX
  5
28B
  8
PROFILE
 10
6.956669427399255
 20
3.014154222276475
 30
0.0
  0
VERTEX
  5
28C
  8
PROFILE
 10
6.916643928267312
 20
2.875836690266926
 30
0.0
  0
VERTEX
  5
28D
  8
PROFILE
 10
6.871657627269052
 20
2.740833706325955
 30
0.0
  0
VERTEX
  5
28E
  8
PROFILE
 10
6.809986688141443
 20
2.58082071940104
 30
0.0
  0
VERTEX
  5
28F
  8
PROFILE
 10
6.743327820411409
 20
2.424170600043404
 30
0.0
  0
VERTEX
  5
290
  8
PROFILE
 10
6.671643724816789
 20
2.269166734483506
 30
0.0
  0
VERTEX
  5
291
  8
PROFILE
 10
6.594976786882761
 20
2.117500305175782
 30
0.0
  0
VERTEX
  5
292
  8
PROFILE
 10
6.513327006609323
 20
1.967502170138886
 30
0.0
  0
VERTEX
  5
293
  8
PROFILE
 10
6.426668952681375
 20
1.820840623643662
 30
0.0
  0
VERTEX
  5
294
  8
PROFILE
 10
6.334982280046823
 20
1.677493625217011
 30
0.0
  0
VERTEX
  5
295
  8
PROFILE
 10
6.309998556088495
 20
1.635844760470917
 30
0.0
  0
VERTEX
  5
296
  8
PROFILE
 10
6.291664273319398
 20
1.590837266710068
 30
0.0
  0
VERTEX
  5
297
  8
PROFILE
 10
6.278316223731721
 20
1.545827229817708
 30
0.0
  0
VERTEX
  5
298
  8
PROFILE
 10
6.271663391700471
 20
1.497503492567273
 30
0.0
  0
VERTEX
  5
299
  8
PROFILE
 10
6.269995097429636
 20
1.44915771484375
 30
0.0
  0
VERTEX
  5
29A
  8
PROFILE
 10
6.274979635190057
 20
1.402503967285157
 30
0.0
  0
VERTEX
  5
29B
  8
PROFILE
 10
6.286659390506898
 20
1.355827331542969
 30
0.0
  0
VERTEX
  5
29C
  8
PROFILE
 10
6.303323683584154
 20
1.310840182834199
 30
0.0
  0
VERTEX
  5
29D
  8
PROFILE
 10
6.32666284916575
 20
1.267500135633679
 30
0.0
  0
VERTEX
  5
29E
  8
PROFILE
 10
6.35498316166575
 20
1.229167514377167
 30
0.0
  0
VERTEX
  5
29F
  8
PROFILE
 10
6.386643453549432
 20
1.194170633951821
 30
0.0
  0
SEQEND
  5
D9C
  8
PROFILE
  0
POLYLINE
  5
71
  8
PROFILE
 66
     1
 10
0.0
 20
0.0
 30
0.0
 70
     1
  0
VERTEX
  5
2A0
  8
PROFILE
 10
-1.938341626745705
 20
-1.387486775716146
 30
0.0
  0
VERTEX
  5
2A1
  8
PROFILE
 10
-1.893334132984855
 20
-1.41416252983941
 30
0.0
  0
VERTEX
  5
2A2
  8
PROFILE
 10
-1.846678690005254
 20
-1.432494269476997
 30
0.0
  0
VERTEX
  5
2A3
  8
PROFILE
 10
-1.796663770300393
 20
-1.447489420572917
 30
0.0
  0
VERTEX
  5
2A4
  8
PROFILE
 10
-1.745003444508292
 20
-1.454165988498264
 30
0.0
  0
VERTEX
  5
2A5
  8
PROFILE
 10
-1.693343118716191
 20
-1.455834282769098
 30
0.0
  0
VERTEX
  5
2A6
  8
PROFILE
 10
-1.641659057029994
 20
-1.452495998806425
 30
0.0
  0
VERTEX
  5
2A7
  8
PROFILE
 10
-1.591667025508727
 20
-1.440839131673177
 30
0.0
  0
VERTEX
  5
2A8
  8
PROFILE
 10
-1.543322095495705
 20
-1.424150254991319
 30
0.0
  0
VERTEX
  5
2A9
  8
PROFILE
 10
-1.496666652516105
 20
-1.40250481499566
 30
0.0
  0
VERTEX
  5
2AA
  8
PROFILE
 10
-1.453326605315585
 20
-1.374159918891059
 30
0.0
  0
VERTEX
  5
2AB
  8
PROFILE
 10
-1.41332314665673
 20
-1.342499627007379
 30
0.0
  0
VERTEX
  5
2AC
  8
PROFILE
 10
-1.376658819671054
 20
-1.304166158040365
 30
0.0
  0
VERTEX
  5
2AD
  8
PROFILE
 10
-1.346668517479213
 20
-1.262494405110677
 30
0.0
  0
VERTEX
  5
2AE
  8
PROFILE
 10
-0.6983285041871117
 20
-0.277492947048612
 30
0.0
  0
VERTEX
  5
2AF
  8
PROFILE
 10
-0.6766593282973545
 20
-0.2391577826605906
 30
0.0
  0
VERTEX
  5
2B0
  8
PROFILE
 10
-0.6633324714722679
 20
-0.1958423190646701
 30
0.0
  0
VERTEX
  5
2B1
  8
PROFILE
 10
-0.6566567512574242
 20
-0.1525031195746531
 30
0.0
  0
VERTEX
  5
2B2
  8
PROFILE
 10
-0.6566567512574242
 20
-0.1074930826822924
 30
0.0
  0
VERTEX
  5
2B3
  8
PROFILE
 10
-0.7650068692587269
 20
1.065817091200085
 30
0.0
  0
VERTEX
  5
2B4
  8
PROFILE
 10
-0.7733279955608108
 20
1.117503696017792
 30
0.0
  0
VERTEX
  5
2B5
  8
PROFILE
 10
-0.7866768928589867
 20
1.167494032118054
 30
0.0
  0
VERTEX
  5
2B6
  8
PROFILE
 10
-0.8066777744779117
 20
1.21417236328125
 30
0.0
  0
VERTEX
  5
2B7
  8
PROFILE
 10
-0.831663193857251
 20
1.259156968858506
 30
0.0
  0
VERTEX
  5
2B8
  8
PROFILE
 10
-0.8633455262140224
 20
1.300828721788193
 30
0.0
  0
VERTEX
  5
2B9
  8
PROFILE
 10
-0.8983424066393688
 20
1.339162190755208
 30
0.0
  0
VERTEX
  5
2BA
  8
PROFILE
 10
-0.938344169877217
 20
1.372490776909722
 30
0.0
  0
VERTEX
  5
2BB
  8
PROFILE
 10
-0.9816604811836402
 20
1.400835673014321
 30
0.0
  0
VERTEX
  5
2BC
  8
PROFILE
 10
-1.028338812346835
 20
1.422505696614583
 30
0.0
  0
VERTEX
  5
2BD
  8
PROFILE
 10
-1.076662549597268
 20
1.440838283962674
 30
0.0
  0
VERTEX
  5
2BE
  8
PROFILE
 10
-1.126676621591626
 20
1.450826856825085
 30
0.0
  0
VERTEX
  5
2BF
  8
PROFILE
 10
-1.17833779509423
 20
1.455833435058594
 30
0.0
  0
VERTEX
  5
2C0
  8
PROFILE
 10
-1.22999812088633
 20
1.454163445366753
 30
0.0
  0
VERTEX
  5
2C1
  8
PROFILE
 10
-1.28168218257253
 20
1.447490268283417
 30
0.0
  0
VERTEX
  5
2C2
  8
PROFILE
 10
-1.330004224401955
 20
1.434164259168835
 30
0.0
  0
VERTEX
  5
2C3
  8
PROFILE
 10
-1.923346475649785
 20
1.234173244900174
 30
0.0
  0
VERTEX
  5
2C4
  8
PROFILE
 10
-1.963325350704039
 20
1.217509799533417
 30
0.0
  0
VERTEX
  5
2C5
  8
PROFILE
 10
-1.999991373110722
 20
1.19250064425998
 30
0.0
  0
VERTEX
  5
2C6
  8
PROFILE
 10
-2.033341999738328
 20
1.162510342068142
 30
0.0
  0
VERTEX
  5
2C7
  8
PROFILE
 10
-2.059994865677998
 20
1.127490573459199
 30
0.0
  0
VERTEX
  5
2C8
  8
PROFILE
 10
-2.081665736988761
 20
1.089157104492188
 30
0.0
  0
VERTEX
  5
2C9
  8
PROFILE
 10
-2.095016329707946
 20
1.047487046983506
 30
0.0
  0
VERTEX
  5
2CA
  8
PROFILE
 10
-2.511660108191018
 20
-0.6224992540147567
 30
0.0
  0
VERTEX
  5
2CB
  8
PROFILE
 10
-2.518334980695359
 20
-0.6658393012152781
 30
0.0
  0
VERTEX
  5
2CC
  8
PROFILE
 10
-2.518334980695359
 20
-0.7091547648111987
 30
0.0
  0
VERTEX
  5
2CD
  8
PROFILE
 10
-2.509990966209681
 20
-0.7541648017035594
 30
0.0
  0
VERTEX
  5
2CE
  8
PROFILE
 10
-2.496664957095097
 20
-0.7941665649414058
 30
0.0
  0
VERTEX
  5
2CF
  8
PROFILE
 10
-2.474994085784335
 20
-0.8341691758897567
 30
0.0
  0
VERTEX
  5
2D0
  8
PROFILE
 10
-2.44667292557383
 20
-0.867497762044271
 30
0.0
  0
VERTEX
  5
2D1
  8
PROFILE
 10
-2.018323960458813
 20
-1.322499593098958
 30
0.0
  0
VERTEX
  5
2D2
  8
PROFILE
 10
-1.979989643781296
 20
-1.357496473524305
 30
0.0
  0
SEQEND
  5
D9D
  8
PROFILE
  0
POLYLINE
  5
72
  8
PROFILE
 66
     1
 10
0.0
 20
0.0
 30
0.0
 70
     1
  0
VERTEX
  5
2D3
  8
PROFILE
 10
-5.679196187174933
 20
-3.122089795598542
 30
0.0
  0
VERTEX
  5
2D4
  8
PROFILE
 10
-1.105007445701869
 20
-3.122504340277778
 30
0.0
  0
VERTEX
  5
2D5
  8
PROFILE
 10
-1.048339693965758
 20
-3.12581804063585
 30
0.0
  0
VERTEX
  5
2D6
  8
PROFILE
 10
-0.9933419319214849
 20
-3.135829501681858
 30
0.0
  0
VERTEX
  5
2D7
  8
PROFILE
 10
-0.9399895759644536
 20
-3.150826348198785
 30
0.0
  0
VERTEX
  5
2D8
  8
PROFILE
 10
-0.8883292501723545
 20
-3.172496371799045
 30
0.0
  0
VERTEX
  5
2D9
  8
PROFILE
 10
-0.8383380663615938
 20
-3.199150085449218
 30
0.0
  0
VERTEX
  5
2DA
  8
PROFILE
 10
-0.7933288771797322
 20
-3.232499864366319
 30
0.0
  0
VERTEX
  5
2DB
  8
PROFILE
 10
-0.7516800124336385
 20
-3.269165886773004
 30
0.0
  0
VERTEX
  5
2DC
  8
PROFILE
 10
-0.7150148377374599
 20
-3.310835944281684
 30
0.0
  0
VERTEX
  5
2DD
  8
PROFILE
 10
-0.6816642111098545
 20
-3.357491387261285
 30
0.0
  0
VERTEX
  5
2DE
  8
PROFILE
 10
-0.6550113451701876
 20
-3.405836317274305
 30
0.0
  0
VERTEX
  5
2DF
  8
PROFILE
 10
-0.6333404738594197
 20
-3.457497490776908
 30
0.0
  0
VERTEX
  5
2E0
  8
PROFILE
 10
-0.6183461704740054
 20
-3.512494405110677
 30
0.0
  0
VERTEX
  5
2E1
  8
PROFILE
 10
-0.608334709428
 20
-3.567493014865451
 30
0.0
  0
VERTEX
  5
2E2
  8
PROFILE
 10
-0.6049955777548206
 20
-3.622491624620225
 30
0.0
  0
VERTEX
  5
2E3
  8
PROFILE
 10
-0.608334709428
 20
-3.679157680935329
 30
0.0
  0
VERTEX
  5
2E4
  8
PROFILE
 10
-0.6183461704740054
 20
-3.734156290690105
 30
0.0
  0
VERTEX
  5
2E5
  8
PROFILE
 10
-0.6333404738594197
 20
-3.789153205023872
 30
0.0
  0
VERTEX
  5
2E6
  8
PROFILE
 10
-0.6550113451701876
 20
-3.840837266710069
 30
0.0
  0
VERTEX
  5
2E7
  8
PROFILE
 10
-0.6816642111098545
 20
-3.889159308539497
 30
0.0
  0
VERTEX
  5
2E8
  8
PROFILE
 10
-0.7150148377374599
 20
-3.934169345431858
 30
0.0
  0
VERTEX
  5
2E9
  8
PROFILE
 10
-0.7516800124336385
 20
-3.977486504448783
 30
0.0
  0
VERTEX
  5
2EA
  8
PROFILE
 10
-0.7933288771797322
 20
-4.014151679144966
 30
0.0
  0
VERTEX
  5
2EB
  8
PROFILE
 10
-0.8383380663615938
 20
-4.045834011501736
 30
0.0
  0
VERTEX
  5
2EC
  8
PROFILE
 10
-0.8883292501723545
 20
-4.074156019422745
 30
0.0
  0
VERTEX
  5
2ED
  8
PROFILE
 10
-0.9399895759644536
 20
-4.095824347601997
 30
0.0
  0
VERTEX
  5
2EE
  8
PROFILE
 10
-0.9933419319214849
 20
-4.110821194118923
 30
0.0
  0
VERTEX
  5
2EF
  8
PROFILE
 10
-1.048339693965758
 20
-4.120832655164932
 30
0.0
  0
VERTEX
  5
2F0
  8
PROFILE
 10
-1.105007445701869
 20
-4.122500949435764
 30
0.0
  0
VERTEX
  5
2F1
  8
PROFILE
 10
-5.675000358842061
 20
-4.122500949435764
 30
0.0
  0
VERTEX
  5
2F2
  8
PROFILE
 10
-5.679196661809299
 20
-4.122118031721087
 30
0.0
  0
VERTEX
  5
2F3
  8
PROFILE
 10
-5.683392015507806
 20
-4.121671860077292
 30
0.0
  0
VERTEX
  5
2F4
  8
PROFILE
 10
-5.738962370595329
 20
-4.120003565806456
 30
0.0
  0
VERTEX
  5
2F5
  8
PROFILE
 10
-5.792895076096892
 20
-4.109992104760451
 30
0.0
  0
VERTEX
  5
2F6
  8
PROFILE
 10
-5.845214239544466
 20
-4.094995258243525
 30
0.0
  0
VERTEX
  5
2F7
  8
PROFILE
 10
-5.895874139756719
 20
-4.073326930064269
 30
0.0
  0
VERTEX
  5
2F8
  8
PROFILE
 10
-5.944897221677214
 20
-4.045004922143264
 30
0.0
  0
VERTEX
  5
2F9
  8
PROFILE
 10
-5.989034787548629
 20
-4.013322589786494
 30
0.0
  0
VERTEX
  5
2FA
  8
PROFILE
 10
-6.02987710318717
 20
-3.976657415090311
 30
0.0
  0
VERTEX
  5
2FB
  8
PROFILE
 10
-6.065832240188209
 20
-3.933340256073385
 30
0.0
  0
VERTEX
  5
2FC
  8
PROFILE
 10
-6.098537016843506
 20
-3.888330219181025
 30
0.0
  0
VERTEX
  5
2FD
  8
PROFILE
 10
-6.124673737976625
 20
-3.840008177351595
 30
0.0
  0
VERTEX
  5
2FE
  8
PROFILE
 10
-6.145924943060662
 20
-3.7883241156654
 30
0.0
  0
VERTEX
  5
2FF
  8
PROFILE
 10
-6.160628874977668
 20
-3.733327201331629
 30
0.0
  0
VERTEX
  5
300
  8
PROFILE
 10
-6.17044645955138
 20
-3.678328591576857
 30
0.0
  0
VERTEX
  5
301
  8
PROFILE
 10
-6.173720927429102
 20
-3.621662535261752
 30
0.0
  0
VERTEX
  5
302
  8
PROFILE
 10
-6.17044645955138
 20
-3.566663925506979
 30
0.0
  0
VERTEX
  5
303
  8
PROFILE
 10
-6.160628874977668
 20
-3.511665315752203
 30
0.0
  0
VERTEX
  5
304
  8
PROFILE
 10
-6.145924943060662
 20
-3.456668401418436
 30
0.0
  0
VERTEX
  5
305
  8
PROFILE
 10
-6.124673737976625
 20
-3.405007227915833
 30
0.0
  0
VERTEX
  5
306
  8
PROFILE
 10
-6.098537016843506
 20
-3.356662297902815
 30
0.0
  0
VERTEX
  5
307
  8
PROFILE
 10
-6.065832240188209
 20
-3.310006854923212
 30
0.0
  0
VERTEX
  5
308
  8
PROFILE
 10
-6.02987710318717
 20
-3.268336797414534
 30
0.0
  0
VERTEX
  5
309
  8
PROFILE
 10
-5.989034787548629
 20
-3.231670775007849
 30
0.0
  0
VERTEX
  5
30A
  8
PROFILE
 10
-5.944897221677214
 20
-3.198320996090746
 30
0.0
  0
VERTEX
  5
30B
  8
PROFILE
 10
-5.895874139756719
 20
-3.171667282440573
 30
0.0
  0
VERTEX
  5
30C
  8
PROFILE
 10
-5.845214239544466
 20
-3.149997258840315
 30
0.0
  0
VERTEX
  5
30D
  8
PROFILE
 10
-5.792895076096892
 20
-3.135000412323385
 30
0.0
  0
VERTEX
  5
30E
  8
PROFILE
 10
-5.738962370595329
 20
-3.12498895127738
 30
0.0
  0
SEQEND
  5
D9E
  8
PROFILE
  0
POLYLINE
  5
73
  8
PROFILE
 66
     1
 10
0.0
 20
0.0
 30
0.0
 70
     1
  0
VERTEX
  5
30F
  8
PROFILE
 10
3.106654846778598
 20
-1.622495863172742
 30
0.0
  0
VERTEX
  5
310
  8
PROFILE
 10
3.151663188249957
 20
-1.624165852864583
 30
0.0
  0
VERTEX
  5
311
  8
PROFILE
 10
3.196649489248218
 20
-1.622495863172742
 30
0.0
  0
VERTEX
  5
312
  8
PROFILE
 10
3.239989536448741
 20
-1.612505594889324
 30
0.0
  0
VERTEX
  5
313
  8
PROFILE
 10
3.283327888228252
 20
-1.599156697591146
 30
0.0
  0
VERTEX
  5
314
  8
PROFILE
 10
3.323331346887104
 20
-1.579156663682725
 30
0.0
  0
VERTEX
  5
315
  8
PROFILE
 10
3.359996521583286
 20
-1.554172939724393
 30
0.0
  0
VERTEX
  5
316
  8
PROFILE
 10
3.393325107737803
 20
-1.524159749348958
 30
0.0
  0
VERTEX
  5
317
  8
PROFILE
 10
3.423315409929645
 20
-1.490829467773437
 30
0.0
  0
VERTEX
  5
318
  8
PROFILE
 10
3.44832286978207
 20
-1.454165988498264
 30
0.0
  0
VERTEX
  5
319
  8
PROFILE
 10
3.468325446822002
 20
-1.412493387858074
 30
0.0
  0
VERTEX
  5
31A
  8
PROFILE
 10
3.483318054786411
 20
-1.370823330349393
 30
0.0
  0
VERTEX
  5
31B
  8
PROFILE
 10
3.491662916982593
 20
-1.327506171332466
 30
0.0
  0
VERTEX
  5
31C
  8
PROFILE
 10
3.494999505524257
 20
-1.282496134440105
 30
0.0
  0
VERTEX
  5
31D
  8
PROFILE
 10
3.494999505524257
 20
-0.3091515435112853
 30
0.0
  0
VERTEX
  5
31E
  8
PROFILE
 10
3.494999505524257
 20
1.282496982150605
 30
0.0
  0
VERTEX
  5
31F
  8
PROFILE
 10
3.491662916982593
 20
1.327503628200955
 30
0.0
  0
VERTEX
  5
320
  8
PROFILE
 10
3.483318054786411
 20
1.370843675401475
 30
0.0
  0
VERTEX
  5
321
  8
PROFILE
 10
3.468325446822002
 20
1.412494235568574
 30
0.0
  0
VERTEX
  5
322
  8
PROFILE
 10
3.44832286978207
 20
1.454163445366753
 30
0.0
  0
VERTEX
  5
323
  8
PROFILE
 10
3.423315409929645
 20
1.490830315483941
 30
0.0
  0
VERTEX
  5
324
  8
PROFILE
 10
3.393325107737803
 20
1.524157206217446
 30
0.0
  0
VERTEX
  5
325
  8
PROFILE
 10
3.359996521583286
 20
1.554170396592881
 30
0.0
  0
VERTEX
  5
326
  8
PROFILE
 10
3.323331346887104
 20
1.579155815972222
 30
0.0
  0
VERTEX
  5
327
  8
PROFILE
 10
3.283327888228252
 20
1.599180433485242
 30
0.0
  0
VERTEX
  5
328
  8
PROFILE
 10
3.239989536448741
 20
1.614151000976563
 30
0.0
  0
VERTEX
  5
329
  8
PROFILE
 10
3.196649489248218
 20
1.622495863172742
 30
0.0
  0
VERTEX
  5
32A
  8
PROFILE
 10
3.151663188249957
 20
1.625834147135415
 30
0.0
  0
VERTEX
  5
32B
  8
PROFILE
 10
3.106654846778598
 20
1.622495863172742
 30
0.0
  0
VERTEX
  5
32C
  8
PROFILE
 10
3.063338535472178
 20
1.614151000976563
 30
0.0
  0
VERTEX
  5
32D
  8
PROFILE
 10
3.021666782542491
 20
1.599180433485242
 30
0.0
  0
VERTEX
  5
32E
  8
PROFILE
 10
2.981663323883632
 20
1.580846998426648
 30
0.0
  0
VERTEX
  5
32F
  8
PROFILE
 10
2.944998149187457
 20
1.555840386284722
 30
0.0
  0
VERTEX
  5
330
  8
PROFILE
 10
2.911647522559848
 20
1.527493794759114
 30
0.0
  0
VERTEX
  5
331
  8
PROFILE
 10
2.881657220368007
 20
1.494166904025605
 30
0.0
  0
VERTEX
  5
332
  8
PROFILE
 10
2.856649760515582
 20
1.457501729329426
 30
0.0
  0
VERTEX
  5
333
  8
PROFILE
 10
2.836670919369746
 20
1.417500813802083
 30
0.0
  0
VERTEX
  5
334
  8
PROFILE
 10
2.821654575511241
 20
1.375827365451386
 30
0.0
  0
VERTEX
  5
335
  8
PROFILE
 10
2.539989197364536
 20
0.3924942016601567
 30
0.0
  0
VERTEX
  5
336
  8
PROFILE
 10
2.535004659604121
 20
0.3574973212348085
 30
0.0
  0
VERTEX
  5
337
  8
PROFILE
 10
2.535004659604121
 20
0.0008341471354165
 30
0.0
  0
VERTEX
  5
338
  8
PROFILE
 10
2.535004659604121
 20
-0.3574981689453121
 30
0.0
  0
VERTEX
  5
339
  8
PROFILE
 10
2.539989197364536
 20
-0.3924950493706603
 30
0.0
  0
VERTEX
  5
33A
  8
PROFILE
 10
2.821654575511241
 20
-1.375829908582899
 30
0.0
  0
VERTEX
  5
33B
  8
PROFILE
 10
2.836670919369746
 20
-1.417499118381076
 30
0.0
  0
VERTEX
  5
33C
  8
PROFILE
 10
2.856649760515582
 20
-1.45750257703993
 30
0.0
  0
VERTEX
  5
33D
  8
PROFILE
 10
2.881657220368007
 20
-1.494166056315105
 30
0.0
  0
VERTEX
  5
33E
  8
PROFILE
 10
2.911647522559848
 20
-1.527496337890625
 30
0.0
  0
VERTEX
  5
33F
  8
PROFILE
 10
2.944998149187457
 20
-1.555841233995225
 30
0.0
  0
VERTEX
  5
340
  8
PROFILE
 10
2.981663323883632
 20
-1.580824957953559
 30
0.0
  0
VERTEX
  5
341
  8
PROFILE
 10
3.021666782542491
 20
-1.599156697591146
 30
0.0
  0
VERTEX
  5
342
  8
PROFILE
 10
3.063338535472178
 20
-1.614175584581163
 30
0.0
  0
SEQEND
  5
D9F
  8
PROFILE
  0
POLYLINE
  5
74
  8
PROFILE
 66
     1
 10
0.0
 20
0.0
 30
0.0
  0
VERTEX
  5
343
  8
PROFILE
 10
-0.6566567512574242
 20
-2.769154866536458
 30
0.0
  0
VERTEX
  5
344
  8
PROFILE
 10
-0.5683312507691429
 20
-2.680829366048177
 30
0.0
  0
SEQEND
  5
DA0
  8
PROFILE
  0
POLYLINE
  5
75
  8
PROFILE
 66
     1
 10
0.0
 20
0.0
 30
0.0
  0
VERTEX
  5
345
  8
PROFILE
 10
-0.525014091752217
 20
-2.63584221733941
 30
0.0
  0
VERTEX
  5
346
  8
PROFILE
 10
-0.4366648553698376
 20
-2.545826382107204
 30
0.0
  0
SEQEND
  5
DA1
  8
PROFILE
  0
POLYLINE
  5
76
  8
PROFILE
 66
     1
 10
0.0
 20
0.0
 30
0.0
  0
VERTEX
  5
347
  8
PROFILE
 10
-0.3933256558798206
 20
-2.502486334906684
 30
0.0
  0
VERTEX
  5
348
  8
PROFILE
 10
-0.3049993076810367
 20
-2.412493387858074
 30
0.0
  0
SEQEND
  5
DA2
  8
PROFILE
  0
POLYLINE
  5
77
  8
PROFILE
 66
     1
 10
0.0
 20
0.0
 30
0.0
  0
VERTEX
  5
349
  8
PROFILE
 10
-0.8516640754761742
 20
-2.609168158637153
 30
0.0
  0
VERTEX
  5
34A
  8
PROFILE
 10
-0.7650068692587269
 20
-2.520818074544271
 30
0.0
  0
SEQEND
  5
DA3
  8
PROFILE
  0
POLYLINE
  5
78
  8
PROFILE
 66
     1
 10
0.0
 20
0.0
 30
0.0
  0
VERTEX
  5
34B
  8
PROFILE
 10
-0.7199985277873733
 20
-2.475832621256511
 30
0.0
  0
VERTEX
  5
34C
  8
PROFILE
 10
-0.6333404738594215
 20
-2.387506273057725
 30
0.0
  0
SEQEND
  5
DA4
  8
PROFILE
  0
POLYLINE
  5
79
  8
PROFILE
 66
     1
 10
0.0
 20
0.0
 30
0.0
  0
VERTEX
  5
34D
  8
PROFILE
 10
-0.5883321323880679
 20
-2.342497931586372
 30
0.0
  0
VERTEX
  5
34E
  8
PROFILE
 10
-0.5000074796102894
 20
-2.254172431098091
 30
0.0
  0
SEQEND
  5
DA5
  8
PROFILE
  0
POLYLINE
  5
7A
  8
PROFILE
 66
     1
 10
0.0
 20
0.0
 30
0.0
  0
VERTEX
  5
34F
  8
PROFILE
 10
-0.4566665846992652
 20
-2.209163241916233
 30
0.0
  0
VERTEX
  5
350
  8
PROFILE
 10
-0.3683402365004795
 20
-2.120837741427951
 30
0.0
  0
SEQEND
  5
DA6
  8
PROFILE
  0
POLYLINE
  5
7B
  8
PROFILE
 66
     1
 10
0.0
 20
0.0
 30
0.0
  0
VERTEX
  5
351
  8
PROFILE
 10
-0.3250010370104626
 20
-2.075829399956598
 30
0.0
  0
VERTEX
  5
352
  8
PROFILE
 10
-0.2366746888116786
 20
-1.987503051757812
 30
0.0
  0
SEQEND
  5
DA7
  8
PROFILE
  0
POLYLINE
  5
7C
  8
PROFILE
 66
     1
 10
0.0
 20
0.0
 30
0.0
  0
VERTEX
  5
353
  8
PROFILE
 10
-0.7883460348403233
 20
-2.902489556206598
 30
0.0
  0
VERTEX
  5
354
  8
PROFILE
 10
-0.7016667881497867
 20
-2.814163208007812
 30
0.0
  0
SEQEND
  5
DA8
  8
PROFILE
  0
POLYLINE
  5
7D
  8
PROFILE
 66
     1
 10
0.0
 20
0.0
 30
0.0
  0
VERTEX
  5
355
  8
PROFILE
 10
-0.2616601081910179
 20
-2.369172837999132
 30
0.0
  0
VERTEX
  5
356
  8
PROFILE
 10
-0.1733329122817295
 20
-2.279156155056425
 30
0.0
  0
SEQEND
  5
DA9
  8
PROFILE
  0
POLYLINE
  5
7E
  8
PROFILE
 66
     1
 10
0.0
 20
0.0
 30
0.0
  0
VERTEX
  5
357
  8
PROFILE
 10
-0.1300157532648036
 20
-2.235838996039497
 30
0.0
  0
VERTEX
  5
358
  8
PROFILE
 10
-0.0416682123034313
 20
-2.145823160807292
 30
0.0
  0
SEQEND
  5
DAA
  8
PROFILE
  0
POLYLINE
  5
7F
  8
PROFILE
 66
     1
 10
0.0
 20
0.0
 30
0.0
  0
VERTEX
  5
359
  8
PROFILE
 10
0.0016726826075928
 20
-2.102481418185764
 30
0.0
  0
VERTEX
  5
35A
  8
PROFILE
 10
0.0899973353853696
 20
-2.012486775716146
 30
0.0
  0
SEQEND
  5
DAB
  8
PROFILE
  0
POLYLINE
  5
80
  8
PROFILE
 66
     1
 10
0.0
 20
0.0
 30
0.0
  0
VERTEX
  5
35B
  8
PROFILE
 10
-1.116664312835116
 20
-2.875835842556423
 30
0.0
  0
VERTEX
  5
35C
  8
PROFILE
 10
-1.028338812346835
 20
-2.787486606174045
 30
0.0
  0
SEQEND
  5
DAC
  8
PROFILE
  0
POLYLINE
  5
81
  8
PROFILE
 66
     1
 10
0.0
 20
0.0
 30
0.0
  0
VERTEX
  5
35D
  8
PROFILE
 10
-0.9833296231649769
 20
-2.742502848307292
 30
0.0
  0
VERTEX
  5
35E
  8
PROFILE
 10
-0.8966732646580322
 20
-2.654175652398004
 30
0.0
  0
SEQEND
  5
DAD
  8
PROFILE
  0
POLYLINE
  5
82
  8
PROFILE
 66
     1
 10
0.0
 20
0.0
 30
0.0
 70
     1
  0
VERTEX
  5
35F
  8
PROFILE
 10
0.4249921813055089
 20
-1.852499220106336
 30
0.0
  0
VERTEX
  5
360
  8
PROFILE
 10
2.101649963966098
 20
-0.1758397420247397
 30
0.0
  0
VERTEX
  5
361
  8
PROFILE
 10
2.126659119239536
 20
-0.147496541341146
 30
0.0
  0
VERTEX
  5
362
  8
PROFILE
 10
2.146660000858462
 20
-0.1141679551866317
 30
0.0
  0
VERTEX
  5
363
  8
PROFILE
 10
2.161655999664882
 20
-0.0775027804904513
 30
0.0
  0
VERTEX
  5
364
  8
PROFILE
 10
2.171667460710891
 20
-0.0391693115234371
 30
0.0
  0
VERTEX
  5
365
  8
PROFILE
 10
2.175005744673564
 20
0.0008341471354165
 30
0.0
  0
VERTEX
  5
366
  8
PROFILE
 10
2.171667460710891
 20
0.0391667683919263
 30
0.0
  0
VERTEX
  5
367
  8
PROFILE
 10
2.161655999664882
 20
0.0775019327799478
 30
0.0
  0
VERTEX
  5
368
  8
PROFILE
 10
2.146660000858462
 20
0.1141671074761281
 30
0.0
  0
VERTEX
  5
369
  8
PROFILE
 10
2.126659119239536
 20
0.1474939982096353
 30
0.0
  0
VERTEX
  5
36A
  8
PROFILE
 10
2.101649963966098
 20
0.1775088840060755
 30
0.0
  0
VERTEX
  5
36B
  8
PROFILE
 10
2.071659661774257
 20
0.2024926079644094
 30
0.0
  0
VERTEX
  5
36C
  8
PROFILE
 10
2.038332771040752
 20
0.2224943372938371
 30
0.0
  0
VERTEX
  5
36D
  8
PROFILE
 10
2.00166759634457
 20
0.237513224283854
 30
0.0
  0
VERTEX
  5
36E
  8
PROFILE
 10
1.963334127377559
 20
0.2475017971462674
 30
0.0
  0
VERTEX
  5
36F
  8
PROFILE
 10
1.924998962989536
 20
0.2508400811089406
 30
0.0
  0
VERTEX
  5
370
  8
PROFILE
 10
1.884997199751689
 20
0.2475017971462674
 30
0.0
  0
VERTEX
  5
371
  8
PROFILE
 10
1.846663730784677
 20
0.237513224283854
 30
0.0
  0
VERTEX
  5
372
  8
PROFILE
 10
1.811666850359329
 20
0.2224943372938371
 30
0.0
  0
VERTEX
  5
373
  8
PROFILE
 10
1.776669969933982
 20
0.2024926079644094
 30
0.0
  0
VERTEX
  5
374
  8
PROFILE
 10
1.748325921539884
 20
0.1775088840060755
 30
0.0
  0
VERTEX
  5
375
  8
PROFILE
 10
0.071665595747783
 20
-1.499149746365018
 30
0.0
  0
VERTEX
  5
376
  8
PROFILE
 10
0.0467159836849618
 20
-1.530298068498989
 30
0.0
  0
VERTEX
  5
377
  8
PROFILE
 10
0.0266555588554223
 20
-1.562493218315973
 30
0.0
  0
VERTEX
  5
378
  8
PROFILE
 10
0.0116612554700062
 20
-1.599156697591146
 30
0.0
  0
VERTEX
  5
379
  8
PROFILE
 10
0.0016726826075928
 20
-1.635822719997831
 30
0.0
  0
VERTEX
  5
37A
  8
PROFILE
 10
-0.0016647536445777
 20
-1.675826178656684
 30
0.0
  0
VERTEX
  5
37B
  8
PROFILE
 10
0.0016726826075928
 20
-1.714159647623699
 30
0.0
  0
VERTEX
  5
37C
  8
PROFILE
 10
0.0116612554700062
 20
-1.752493116590711
 30
0.0
  0
VERTEX
  5
37D
  8
PROFILE
 10
0.0266555588554223
 20
-1.789159986707899
 30
0.0
  0
VERTEX
  5
37E
  8
PROFILE
 10
0.0466589836058571
 20
-1.822508917914497
 30
0.0
  0
VERTEX
  5
37F
  8
PROFILE
 10
0.071665595747783
 20
-1.852499220106336
 30
0.0
  0
VERTEX
  5
380
  8
PROFILE
 10
0.101655897939624
 20
-1.877507527669271
 30
0.0
  0
VERTEX
  5
381
  8
PROFILE
 10
0.1349836363836339
 20
-1.899154663085937
 30
0.0
  0
VERTEX
  5
382
  8
PROFILE
 10
0.1716488110798142
 20
-1.914172702365451
 30
0.0
  0
VERTEX
  5
383
  8
PROFILE
 10
0.2100068636514294
 20
-1.922492980957031
 30
0.0
  0
VERTEX
  5
384
  8
PROFILE
 10
0.2483403326184437
 20
-1.925829569498699
 30
0.0
  0
VERTEX
  5
385
  8
PROFILE
 10
0.2883209030937035
 20
-1.922492980957031
 30
0.0
  0
VERTEX
  5
386
  8
PROFILE
 10
0.3266535243502133
 20
-1.914172702365451
 30
0.0
  0
VERTEX
  5
387
  8
PROFILE
 10
0.3616487093545544
 20
-1.899154663085937
 30
0.0
  0
VERTEX
  5
388
  8
PROFILE
 10
0.3945726214910028
 20
-1.877990747239419
 30
0.0
  0
SEQEND
  5
DAE
  8
PROFILE
  0
POLYLINE
  5
83
  8
PROFILE
 66
     1
 10
0.0
 20
0.0
 30
0.0
  0
VERTEX
  5
389
  8
PROFILE
 10
-0.6566567512574242
 20
-2.769154866536458
 30
0.0
  0
VERTEX
  5
38A
  8
PROFILE
 10
-0.5683312507691429
 20
-2.680829366048177
 30
0.0
  0
SEQEND
  5
DAF
  8
PROFILE
  0
POLYLINE
  5
84
  8
PROFILE
 66
     1
 10
0.0
 20
0.0
 30
0.0
  0
VERTEX
  5
38B
  8
PROFILE
 10
-0.525014091752217
 20
-2.63584221733941
 30
0.0
  0
VERTEX
  5
38C
  8
PROFILE
 10
-0.4366648553698376
 20
-2.545826382107204
 30
0.0
  0
SEQEND
  5
DB0
  8
PROFILE
  0
POLYLINE
  5
85
  8
PROFILE
 66
     1
 10
0.0
 20
0.0
 30
0.0
  0
VERTEX
  5
38D
  8
PROFILE
 10
-0.3933256558798206
 20
-2.502486334906684
 30
0.0
  0
VERTEX
  5
38E
  8
PROFILE
 10
-0.3049993076810367
 20
-2.412493387858074
 30
0.0
  0
SEQEND
  5
DB1
  8
PROFILE
  0
POLYLINE
  5
86
  8
PROFILE
 66
     1
 10
0.0
 20
0.0
 30
0.0
  0
VERTEX
  5
38F
  8
PROFILE
 10
-0.8516640754761742
 20
-2.609168158637153
 30
0.0
  0
VERTEX
  5
390
  8
PROFILE
 10
-0.7650068692587269
 20
-2.520818074544271
 30
0.0
  0
SEQEND
  5
DB2
  8
PROFILE
  0
POLYLINE
  5
87
  8
PROFILE
 66
     1
 10
0.0
 20
0.0
 30
0.0
  0
VERTEX
  5
391
  8
PROFILE
 10
-0.7199985277873733
 20
-2.475832621256511
 30
0.0
  0
VERTEX
  5
392
  8
PROFILE
 10
-0.6333404738594215
 20
-2.387506273057725
 30
0.0
  0
SEQEND
  5
DB3
  8
PROFILE
  0
POLYLINE
  5
88
  8
PROFILE
 66
     1
 10
0.0
 20
0.0
 30
0.0
  0
VERTEX
  5
393
  8
PROFILE
 10
-0.5883321323880679
 20
-2.342497931586372
 30
0.0
  0
VERTEX
  5
394
  8
PROFILE
 10
-0.5000074796102894
 20
-2.254172431098091
 30
0.0
  0
SEQEND
  5
DB4
  8
PROFILE
  0
POLYLINE
  5
89
  8
PROFILE
 66
     1
 10
0.0
 20
0.0
 30
0.0
  0
VERTEX
  5
395
  8
PROFILE
 10
-0.4566665846992652
 20
-2.209163241916233
 30
0.0
  0
VERTEX
  5
396
  8
PROFILE
 10
-0.3683402365004795
 20
-2.120837741427951
 30
0.0
  0
SEQEND
  5
DB5
  8
PROFILE
  0
POLYLINE
  5
8A
  8
PROFILE
 66
     1
 10
0.0
 20
0.0
 30
0.0
  0
VERTEX
  5
397
  8
PROFILE
 10
-0.3250010370104626
 20
-2.075829399956598
 30
0.0
  0
VERTEX
  5
398
  8
PROFILE
 10
-0.2366746888116786
 20
-1.987503051757812
 30
0.0
  0
SEQEND
  5
DB6
  8
PROFILE
  0
POLYLINE
  5
8B
  8
PROFILE
 66
     1
 10
0.0
 20
0.0
 30
0.0
  0
VERTEX
  5
399
  8
PROFILE
 10
-0.7883460348403233
 20
-2.902489556206598
 30
0.0
  0
VERTEX
  5
39A
  8
PROFILE
 10
-0.7016667881497867
 20
-2.814163208007812
 30
0.0
  0
SEQEND
  5
DB7
  8
PROFILE
  0
POLYLINE
  5
8C
  8
PROFILE
 66
     1
 10
0.0
 20
0.0
 30
0.0
  0
VERTEX
  5
39B
  8
PROFILE
 10
-0.2616601081910179
 20
-2.369172837999132
 30
0.0
  0
VERTEX
  5
39C
  8
PROFILE
 10
-0.1733329122817295
 20
-2.279156155056425
 30
0.0
  0
SEQEND
  5
DB8
  8
PROFILE
  0
POLYLINE
  5
8D
  8
PROFILE
 66
     1
 10
0.0
 20
0.0
 30
0.0
  0
VERTEX
  5
39D
  8
PROFILE
 10
-0.1300157532648036
 20
-2.235838996039497
 30
0.0
  0
VERTEX
  5
39E
  8
PROFILE
 10
-0.0416682123034313
 20
-2.145823160807292
 30
0.0
  0
SEQEND
  5
DB9
  8
PROFILE
  0
POLYLINE
  5
8E
  8
PROFILE
 66
     1
 10
0.0
 20
0.0
 30
0.0
  0
VERTEX
  5
39F
  8
PROFILE
 10
-1.116664312835116
 20
-2.875835842556423
 30
0.0
  0
VERTEX
  5
3A0
  8
PROFILE
 10
-1.028338812346835
 20
-2.787486606174045
 30
0.0
  0
SEQEND
  5
DBA
  8
PROFILE
  0
POLYLINE
  5
8F
  8
PROFILE
 66
     1
 10
0.0
 20
0.0
 30
0.0
  0
VERTEX
  5
3A1
  8
PROFILE
 10
-0.9833296231649769
 20
-2.742502848307292
 30
0.0
  0
VERTEX
  5
3A2
  8
PROFILE
 10
-0.8966732646580322
 20
-2.654175652398004
 30
0.0
  0
SEQEND
  5
DBB
  8
PROFILE
  0
POLYLINE
  5
90
  8
PROFILE
 66
     1
 10
0.0
 20
0.0
 30
0.0
  0
VERTEX
  5
3A3
  8
PROFILE
 10
2.274988112295093
 20
0.1258256700303826
 30
0.0
  0
VERTEX
  5
3A4
  8
PROFILE
 10
2.40000167566315
 20
0.1258256700303826
 30
0.0
  0
SEQEND
  5
DBC
  8
PROFILE
  0
POLYLINE
  5
91
  8
PROFILE
 66
     1
 10
0.0
 20
0.0
 30
0.0
  0
VERTEX
  5
3A5
  8
PROFILE
 10
2.141653422624954
 20
0.1258256700303826
 30
0.0
  0
VERTEX
  5
3A6
  8
PROFILE
 10
2.213339213640579
 20
0.1258256700303826
 30
0.0
  0
SEQEND
  5
DBD
  8
PROFILE
  0
POLYLINE
  5
92
  8
PROFILE
 66
     1
 10
0.0
 20
0.0
 30
0.0
  0
VERTEX
  5
3A7
  8
PROFILE
 10
2.153334873362803
 20
-0.1241565280490451
 30
0.0
  0
VERTEX
  5
3A8
  8
PROFILE
 10
2.218322055979991
 20
-0.1241565280490451
 30
0.0
  0
SEQEND
  5
DBE
  8
PROFILE
  0
POLYLINE
  5
93
  8
PROFILE
 66
     1
 10
0.0
 20
0.0
 30
0.0
  0
VERTEX
  5
3A9
  8
PROFILE
 10
2.281662984799434
 20
-0.1241565280490451
 30
0.0
  0
VERTEX
  5
3AA
  8
PROFILE
 10
2.4066545076944
 20
-0.1241565280490451
 30
0.0
  0
SEQEND
  5
DBF
  8
PROFILE
  0
POLYLINE
  5
94
  8
PROFILE
 66
     1
 10
0.0
 20
0.0
 30
0.0
  0
VERTEX
  5
3AB
  8
PROFILE
 10
6.661657695085886
 20
0.7508273654513862
 30
0.0
  0
VERTEX
  5
3AC
  8
PROFILE
 10
6.658319411123216
 20
0.7708273993598067
 30
0.0
  0
SEQEND
  5
DC0
  8
PROFILE
  0
POLYLINE
  5
95
  8
PROFILE
 66
     1
 10
0.0
 20
0.0
 30
0.0
  0
VERTEX
  5
3AD
  8
PROFILE
 10
6.658319411123216
 20
0.7708273993598067
 30
0.0
  0
VERTEX
  5
3AE
  8
PROFILE
 10
6.64999828482113
 20
0.7908291286892362
 30
0.0
  0
SEQEND
  5
DC1
  8
PROFILE
  0
POLYLINE
  5
96
  8
PROFILE
 66
     1
 10
0.0
 20
0.0
 30
0.0
  0
VERTEX
  5
3AF
  8
PROFILE
 10
6.64999828482113
 20
0.7908291286892362
 30
0.0
  0
VERTEX
  5
3B0
  8
PROFILE
 10
6.638316834083284
 20
0.8058242797851567
 30
0.0
  0
SEQEND
  5
DC2
  8
PROFILE
  0
POLYLINE
  5
97
  8
PROFILE
 66
     1
 10
0.0
 20
0.0
 30
0.0
  0
VERTEX
  5
3B1
  8
PROFILE
 10
6.638316834083284
 20
0.8058242797851567
 30
0.0
  0
VERTEX
  5
3B2
  8
PROFILE
 10
6.621652541006029
 20
0.8191740247938353
 30
0.0
  0
SEQEND
  5
DC3
  8
PROFILE
  0
POLYLINE
  5
98
  8
PROFILE
 66
     1
 10
0.0
 20
0.0
 30
0.0
  0
VERTEX
  5
3B3
  8
PROFILE
 10
6.541647319109323
 20
0.8191740247938353
 30
0.0
  0
VERTEX
  5
3B4
  8
PROFILE
 10
6.524981330611062
 20
0.8058242797851567
 30
0.0
  0
SEQEND
  5
DC4
  8
PROFILE
  0
POLYLINE
  5
99
  8
PROFILE
 66
     1
 10
0.0
 20
0.0
 30
0.0
  0
VERTEX
  5
3B5
  8
PROFILE
 10
6.524981330611062
 20
0.8058242797851567
 30
0.0
  0
VERTEX
  5
3B6
  8
PROFILE
 10
6.511657016917489
 20
0.7908291286892362
 30
0.0
  0
SEQEND
  5
DC5
  8
PROFILE
  0
POLYLINE
  5
9A
  8
PROFILE
 66
     1
 10
0.0
 20
0.0
 30
0.0
  0
VERTEX
  5
3B7
  8
PROFILE
 10
6.511657016917489
 20
0.7908291286892362
 30
0.0
  0
VERTEX
  5
3B8
  8
PROFILE
 10
6.503313850142312
 20
0.7708273993598067
 30
0.0
  0
SEQEND
  5
DC6
  8
PROFILE
  0
POLYLINE
  5
9B
  8
PROFILE
 66
     1
 10
0.0
 20
0.0
 30
0.0
  0
VERTEX
  5
3B9
  8
PROFILE
 10
6.524981330611062
 20
0.6941604614257817
 30
0.0
  0
VERTEX
  5
3BA
  8
PROFILE
 10
6.541647319109323
 20
0.6808336046006933
 30
0.0
  0
SEQEND
  5
DC7
  8
PROFILE
  0
POLYLINE
  5
9C
  8
PROFILE
 66
     1
 10
0.0
 20
0.0
 30
0.0
  0
VERTEX
  5
3BB
  8
PROFILE
 10
6.541647319109323
 20
0.6808336046006933
 30
0.0
  0
VERTEX
  5
3BC
  8
PROFILE
 10
6.559979906457414
 20
0.6724904378255201
 30
0.0
  0
SEQEND
  5
DC8
  8
PROFILE
  0
POLYLINE
  5
9D
  8
PROFILE
 66
     1
 10
0.0
 20
0.0
 30
0.0
  0
VERTEX
  5
3BD
  8
PROFILE
 10
6.601649963966096
 20
0.6724904378255201
 30
0.0
  0
VERTEX
  5
3BE
  8
PROFILE
 10
6.621652541006029
 20
0.6808336046006933
 30
0.0
  0
SEQEND
  5
DC9
  8
PROFILE
  0
POLYLINE
  5
9E
  8
PROFILE
 66
     1
 10
0.0
 20
0.0
 30
0.0
  0
VERTEX
  5
3BF
  8
PROFILE
 10
6.621652541006029
 20
0.6808336046006933
 30
0.0
  0
VERTEX
  5
3C0
  8
PROFILE
 10
6.638316834083284
 20
0.6941604614257817
 30
0.0
  0
SEQEND
  5
DCA
  8
PROFILE
  0
POLYLINE
  5
9F
  8
PROFILE
 66
     1
 10
0.0
 20
0.0
 30
0.0
  0
VERTEX
  5
3C1
  8
PROFILE
 10
6.638316834083284
 20
0.6941604614257817
 30
0.0
  0
VERTEX
  5
3C2
  8
PROFILE
 10
6.64999828482113
 20
0.7108239067925344
 30
0.0
  0
SEQEND
  5
DCB
  8
PROFILE
  0
POLYLINE
  5
A0
  8
PROFILE
 66
     1
 10
0.0
 20
0.0
 30
0.0
  0
VERTEX
  5
3C3
  8
PROFILE
 10
6.658319411123216
 20
0.7291573418511281
 30
0.0
  0
VERTEX
  5
3C4
  8
PROFILE
 10
6.661657695085886
 20
0.7508273654513862
 30
0.0
  0
SEQEND
  5
DCC
  8
PROFILE
  0
POLYLINE
  5
A1
  8
PROFILE
 66
     1
 10
0.0
 20
0.0
 30
0.0
  0
VERTEX
  5
3C5
  8
PROFILE
 10
6.491656135298562
 20
0.7508273654513862
 30
0.0
  0
VERTEX
  5
3C6
  8
PROFILE
 10
6.671643724816789
 20
0.7508273654513862
 30
0.0
  0
SEQEND
  5
DCD
  8
PROFILE
  0
POLYLINE
  5
A2
  8
PROFILE
 66
     1
 10
0.0
 20
0.0
 30
0.0
  0
VERTEX
  5
3C7
  8
PROFILE
 10
6.581650777768182
 20
0.6608318752712674
 30
0.0
  0
VERTEX
  5
3C8
  8
PROFILE
 10
6.581650777768182
 20
0.8408432006835942
 30
0.0
  0
SEQEND
  5
DCE
  8
PROFILE
  0
POLYLINE
  5
A3
  8
PROFILE
 66
     1
 10
0.0
 20
0.0
 30
0.0
  0
VERTEX
  5
3C9
  8
PROFILE
 10
6.621652541006029
 20
0.8191740247938353
 30
0.0
  0
VERTEX
  5
3CA
  8
PROFILE
 10
6.601649963966096
 20
0.8274943033854147
 30
0.0
  0
SEQEND
  5
DCF
  8
PROFILE
  0
POLYLINE
  5
A4
  8
PROFILE
 66
     1
 10
0.0
 20
0.0
 30
0.0
  0
VERTEX
  5
3CB
  8
PROFILE
 10
6.601649963966096
 20
0.8274943033854147
 30
0.0
  0
VERTEX
  5
3CC
  8
PROFILE
 10
6.581650777768182
 20
0.8308317396375853
 30
0.0
  0
SEQEND
  5
DD0
  8
PROFILE
  0
POLYLINE
  5
A5
  8
PROFILE
 66
     1
 10
0.0
 20
0.0
 30
0.0
  0
VERTEX
  5
3CD
  8
PROFILE
 10
6.581650777768182
 20
0.8308317396375853
 30
0.0
  0
VERTEX
  5
3CE
  8
PROFILE
 10
6.559979906457414
 20
0.8274943033854147
 30
0.0
  0
SEQEND
  5
DD1
  8
PROFILE
  0
POLYLINE
  5
A6
  8
PROFILE
 66
     1
 10
0.0
 20
0.0
 30
0.0
  0
VERTEX
  5
3CF
  8
PROFILE
 10
6.559979906457414
 20
0.8274943033854147
 30
0.0
  0
VERTEX
  5
3D0
  8
PROFILE
 10
6.541647319109323
 20
0.8191740247938353
 30
0.0
  0
SEQEND
  5
DD2
  8
PROFILE
  0
POLYLINE
  5
A7
  8
PROFILE
 66
     1
 10
0.0
 20
0.0
 30
0.0
  0
VERTEX
  5
3D1
  8
PROFILE
 10
6.503313850142312
 20
0.7708273993598067
 30
0.0
  0
VERTEX
  5
3D2
  8
PROFILE
 10
6.501667596344568
 20
0.7508273654513862
 30
0.0
  0
SEQEND
  5
DD3
  8
PROFILE
  0
POLYLINE
  5
A8
  8
PROFILE
 66
     1
 10
0.0
 20
0.0
 30
0.0
  0
VERTEX
  5
3D3
  8
PROFILE
 10
6.501667596344568
 20
0.7508273654513862
 30
0.0
  0
VERTEX
  5
3D4
  8
PROFILE
 10
6.503313850142312
 20
0.7291573418511281
 30
0.0
  0
SEQEND
  5
DD4
  8
PROFILE
  0
POLYLINE
  5
A9
  8
PROFILE
 66
     1
 10
0.0
 20
0.0
 30
0.0
  0
VERTEX
  5
3D5
  8
PROFILE
 10
6.503313850142312
 20
0.7291573418511281
 30
0.0
  0
VERTEX
  5
3D6
  8
PROFILE
 10
6.511657016917489
 20
0.7108239067925344
 30
0.0
  0
SEQEND
  5
DD5
  8
PROFILE
  0
POLYLINE
  5
AA
  8
PROFILE
 66
     1
 10
0.0
 20
0.0
 30
0.0
  0
VERTEX
  5
3D7
  8
PROFILE
 10
6.511657016917489
 20
0.7108239067925344
 30
0.0
  0
VERTEX
  5
3D8
  8
PROFILE
 10
6.524981330611062
 20
0.6941604614257817
 30
0.0
  0
SEQEND
  5
DD6
  8
PROFILE
  0
POLYLINE
  5
AB
  8
PROFILE
 66
     1
 10
0.0
 20
0.0
 30
0.0
  0
VERTEX
  5
3D9
  8
PROFILE
 10
6.559979906457414
 20
0.6724904378255201
 30
0.0
  0
VERTEX
  5
3DA
  8
PROFILE
 10
6.581650777768182
 20
0.670820448133679
 30
0.0
  0
SEQEND
  5
DD7
  8
PROFILE
  0
POLYLINE
  5
AC
  8
PROFILE
 66
     1
 10
0.0
 20
0.0
 30
0.0
  0
VERTEX
  5
3DB
  8
PROFILE
 10
6.581650777768182
 20
0.670820448133679
 30
0.0
  0
VERTEX
  5
3DC
  8
PROFILE
 10
6.601649963966096
 20
0.6724904378255201
 30
0.0
  0
SEQEND
  5
DD8
  8
PROFILE
  0
POLYLINE
  5
AD
  8
PROFILE
 66
     1
 10
0.0
 20
0.0
 30
0.0
  0
VERTEX
  5
3DD
  8
PROFILE
 10
6.64999828482113
 20
0.7108239067925344
 30
0.0
  0
VERTEX
  5
3DE
  8
PROFILE
 10
6.658319411123216
 20
0.7291573418511281
 30
0.0
  0
SEQEND
  5
DD9
  8
PROFILE
  0
POLYLINE
  5
AE
  8
PROFILE
 66
     1
 10
0.0
 20
0.0
 30
0.0
  0
VERTEX
  5
3DF
  8
PROFILE
 10
4.601656745650125
 20
0.8274943033854147
 30
0.0
  0
VERTEX
  5
3E0
  8
PROFILE
 10
4.581655864031198
 20
0.8308317396375853
 30
0.0
  0
SEQEND
  5
DDA
  8
PROFILE
  0
POLYLINE
  5
AF
  8
PROFILE
 66
     1
 10
0.0
 20
0.0
 30
0.0
  0
VERTEX
  5
3E1
  8
PROFILE
 10
4.581655864031198
 20
0.8308317396375853
 30
0.0
  0
VERTEX
  5
3E2
  8
PROFILE
 10
4.559984992720437
 20
0.8274943033854147
 30
0.0
  0
SEQEND
  5
DDB
  8
PROFILE
  0
POLYLINE
  5
B0
  8
PROFILE
 66
     1
 10
0.0
 20
0.0
 30
0.0
  0
VERTEX
  5
3E3
  8
PROFILE
 10
4.559984992720437
 20
0.8274943033854147
 30
0.0
  0
VERTEX
  5
3E4
  8
PROFILE
 10
4.541652405372346
 20
0.8191740247938353
 30
0.0
  0
SEQEND
  5
DDC
  8
PROFILE
  0
POLYLINE
  5
B1
  8
PROFILE
 66
     1
 10
0.0
 20
0.0
 30
0.0
  0
VERTEX
  5
3E5
  8
PROFILE
 10
4.621659322690057
 20
0.8191740247938353
 30
0.0
  0
VERTEX
  5
3E6
  8
PROFILE
 10
4.601656745650125
 20
0.8274943033854147
 30
0.0
  0
SEQEND
  5
DDD
  8
PROFILE
  0
POLYLINE
  5
B2
  8
PROFILE
 66
     1
 10
0.0
 20
0.0
 30
0.0
  0
VERTEX
  5
3E7
  8
PROFILE
 10
4.581655864031198
 20
0.6608318752712674
 30
0.0
  0
VERTEX
  5
3E8
  8
PROFILE
 10
4.581655864031198
 20
0.8408432006835942
 30
0.0
  0
SEQEND
  5
DDE
  8
PROFILE
  0
POLYLINE
  5
B3
  8
PROFILE
 66
     1
 10
0.0
 20
0.0
 30
0.0
  0
VERTEX
  5
3E9
  8
PROFILE
 10
4.524988112295091
 20
0.8058242797851567
 30
0.0
  0
VERTEX
  5
3EA
  8
PROFILE
 10
4.511662103180505
 20
0.7908291286892362
 30
0.0
  0
SEQEND
  5
DDF
  8
PROFILE
  0
POLYLINE
  5
B4
  8
PROFILE
 66
     1
 10
0.0
 20
0.0
 30
0.0
  0
VERTEX
  5
3EB
  8
PROFILE
 10
4.638321920346307
 20
0.8058242797851567
 30
0.0
  0
VERTEX
  5
3EC
  8
PROFILE
 10
4.621659322690057
 20
0.8191740247938353
 30
0.0
  0
SEQEND
  5
DE0
  8
PROFILE
  0
POLYLINE
  5
B5
  8
PROFILE
 66
     1
 10
0.0
 20
0.0
 30
0.0
  0
VERTEX
  5
3ED
  8
PROFILE
 10
4.511662103180505
 20
0.7908291286892362
 30
0.0
  0
VERTEX
  5
3EE
  8
PROFILE
 10
4.503318936405336
 20
0.7708273993598067
 30
0.0
  0
SEQEND
  5
DE1
  8
PROFILE
  0
POLYLINE
  5
B6
  8
PROFILE
 66
     1
 10
0.0
 20
0.0
 30
0.0
  0
VERTEX
  5
3EF
  8
PROFILE
 10
4.649979635190057
 20
0.7908291286892362
 30
0.0
  0
VERTEX
  5
3F0
  8
PROFILE
 10
4.638321920346307
 20
0.8058242797851567
 30
0.0
  0
SEQEND
  5
DE2
  8
PROFILE
  0
POLYLINE
  5
B7
  8
PROFILE
 66
     1
 10
0.0
 20
0.0
 30
0.0
  0
VERTEX
  5
3F1
  8
PROFILE
 10
4.503318936405336
 20
0.7708273993598067
 30
0.0
  0
VERTEX
  5
3F2
  8
PROFILE
 10
4.501648946713495
 20
0.7508273654513862
 30
0.0
  0
SEQEND
  5
DE3
  8
PROFILE
  0
POLYLINE
  5
B8
  8
PROFILE
 66
     1
 10
0.0
 20
0.0
 30
0.0
  0
VERTEX
  5
3F3
  8
PROFILE
 10
4.658324497386239
 20
0.7708273993598067
 30
0.0
  0
VERTEX
  5
3F4
  8
PROFILE
 10
4.649979635190057
 20
0.7908291286892362
 30
0.0
  0
SEQEND
  5
DE4
  8
PROFILE
  0
POLYLINE
  5
B9
  8
PROFILE
 66
     1
 10
0.0
 20
0.0
 30
0.0
  0
VERTEX
  5
3F5
  8
PROFILE
 10
4.501648946713495
 20
0.7508273654513862
 30
0.0
  0
VERTEX
  5
3F6
  8
PROFILE
 10
4.503318936405336
 20
0.7291573418511281
 30
0.0
  0
SEQEND
  5
DE5
  8
PROFILE
  0
POLYLINE
  5
BA
  8
PROFILE
 66
     1
 10
0.0
 20
0.0
 30
0.0
  0
VERTEX
  5
3F7
  8
PROFILE
 10
4.661661085927904
 20
0.7508273654513862
 30
0.0
  0
VERTEX
  5
3F8
  8
PROFILE
 10
4.658324497386239
 20
0.7708273993598067
 30
0.0
  0
SEQEND
  5
DE6
  8
PROFILE
  0
POLYLINE
  5
BB
  8
PROFILE
 66
     1
 10
0.0
 20
0.0
 30
0.0
  0
VERTEX
  5
3F9
  8
PROFILE
 10
4.649979635190057
 20
0.7108239067925344
 30
0.0
  0
VERTEX
  5
3FA
  8
PROFILE
 10
4.658324497386239
 20
0.7291573418511281
 30
0.0
  0
SEQEND
  5
DE7
  8
PROFILE
  0
POLYLINE
  5
BC
  8
PROFILE
 66
     1
 10
0.0
 20
0.0
 30
0.0
  0
VERTEX
  5
3FB
  8
PROFILE
 10
4.491659526140573
 20
0.7508273654513862
 30
0.0
  0
VERTEX
  5
3FC
  8
PROFILE
 10
4.671672546973909
 20
0.7508273654513862
 30
0.0
  0
SEQEND
  5
DE8
  8
PROFILE
  0
POLYLINE
  5
BD
  8
PROFILE
 66
     1
 10
0.0
 20
0.0
 30
0.0
  0
VERTEX
  5
3FD
  8
PROFILE
 10
4.658324497386239
 20
0.7291573418511281
 30
0.0
  0
VERTEX
  5
3FE
  8
PROFILE
 10
4.661661085927904
 20
0.7508273654513862
 30
0.0
  0
SEQEND
  5
DE9
  8
PROFILE
  0
POLYLINE
  5
BE
  8
PROFILE
 66
     1
 10
0.0
 20
0.0
 30
0.0
  0
VERTEX
  5
3FF
  8
PROFILE
 10
4.503318936405336
 20
0.7291573418511281
 30
0.0
  0
VERTEX
  5
400
  8
PROFILE
 10
4.511662103180505
 20
0.7108239067925344
 30
0.0
  0
SEQEND
  5
DEA
  8
PROFILE
  0
POLYLINE
  5
BF
  8
PROFILE
 66
     1
 10
0.0
 20
0.0
 30
0.0
  0
VERTEX
  5
401
  8
PROFILE
 10
4.621659322690057
 20
0.6808336046006933
 30
0.0
  0
VERTEX
  5
402
  8
PROFILE
 10
4.638321920346307
 20
0.6941604614257817
 30
0.0
  0
SEQEND
  5
DEB
  8
PROFILE
  0
POLYLINE
  5
C0
  8
PROFILE
 66
     1
 10
0.0
 20
0.0
 30
0.0
  0
VERTEX
  5
403
  8
PROFILE
 10
4.511662103180505
 20
0.7108239067925344
 30
0.0
  0
VERTEX
  5
404
  8
PROFILE
 10
4.524988112295091
 20
0.6941604614257817
 30
0.0
  0
SEQEND
  5
DEC
  8
PROFILE
  0
POLYLINE
  5
C1
  8
PROFILE
 66
     1
 10
0.0
 20
0.0
 30
0.0
  0
VERTEX
  5
405
  8
PROFILE
 10
4.638321920346307
 20
0.6941604614257817
 30
0.0
  0
VERTEX
  5
406
  8
PROFILE
 10
4.649979635190057
 20
0.7108239067925344
 30
0.0
  0
SEQEND
  5
DED
  8
PROFILE
  0
POLYLINE
  5
C2
  8
PROFILE
 66
     1
 10
0.0
 20
0.0
 30
0.0
  0
VERTEX
  5
407
  8
PROFILE
 10
4.524988112295091
 20
0.6941604614257817
 30
0.0
  0
VERTEX
  5
408
  8
PROFILE
 10
4.541652405372346
 20
0.6808336046006933
 30
0.0
  0
SEQEND
  5
DEE
  8
PROFILE
  0
POLYLINE
  5
C3
  8
PROFILE
 66
     1
 10
0.0
 20
0.0
 30
0.0
  0
VERTEX
  5
409
  8
PROFILE
 10
4.581655864031198
 20
0.670820448133679
 30
0.0
  0
VERTEX
  5
40A
  8
PROFILE
 10
4.601656745650125
 20
0.6724904378255201
 30
0.0
  0
SEQEND
  5
DEF
  8
PROFILE
  0
POLYLINE
  5
C4
  8
PROFILE
 66
     1
 10
0.0
 20
0.0
 30
0.0
  0
VERTEX
  5
40B
  8
PROFILE
 10
4.541652405372346
 20
0.6808336046006933
 30
0.0
  0
VERTEX
  5
40C
  8
PROFILE
 10
4.559984992720437
 20
0.6724904378255201
 30
0.0
  0
SEQEND
  5
DF0
  8
PROFILE
  0
POLYLINE
  5
C5
  8
PROFILE
 66
     1
 10
0.0
 20
0.0
 30
0.0
  0
VERTEX
  5
40D
  8
PROFILE
 10
4.601656745650125
 20
0.6724904378255201
 30
0.0
  0
VERTEX
  5
40E
  8
PROFILE
 10
4.621659322690057
 20
0.6808336046006933
 30
0.0
  0
SEQEND
  5
DF1
  8
PROFILE
  0
POLYLINE
  5
C6
  8
PROFILE
 66
     1
 10
0.0
 20
0.0
 30
0.0
  0
VERTEX
  5
40F
  8
PROFILE
 10
4.559984992720437
 20
0.6724904378255201
 30
0.0
  0
VERTEX
  5
410
  8
PROFILE
 10
4.581655864031198
 20
0.670820448133679
 30
0.0
  0
SEQEND
  5
DF2
  8
PROFILE
  0
POLYLINE
  5
C7
  8
PROFILE
 66
     1
 10
0.0
 20
0.0
 30
0.0
  0
VERTEX
  5
411
  8
PROFILE
 10
4.541652405372346
 20
0.8191740247938353
 30
0.0
  0
VERTEX
  5
412
  8
PROFILE
 10
4.524988112295091
 20
0.8058242797851567
 30
0.0
  0
SEQEND
  5
DF3
  8
PROFILE
  0
POLYLINE
  5
C8
  8
PROFILE
 66
     1
 10
0.0
 20
0.0
 30
0.0
  0
VERTEX
  5
413
  8
PROFILE
 10
6.661657695085886
 20
-0.7491582234700522
 30
0.0
  0
VERTEX
  5
414
  8
PROFILE
 10
6.658319411123216
 20
-0.7291564941406246
 30
0.0
  0
SEQEND
  5
DF4
  8
PROFILE
  0
POLYLINE
  5
C9
  8
PROFILE
 66
     1
 10
0.0
 20
0.0
 30
0.0
  0
VERTEX
  5
415
  8
PROFILE
 10
6.658319411123216
 20
-0.7291564941406246
 30
0.0
  0
VERTEX
  5
416
  8
PROFILE
 10
6.64999828482113
 20
-0.7091547648111987
 30
0.0
  0
SEQEND
  5
DF5
  8
PROFILE
  0
POLYLINE
  5
CA
  8
PROFILE
 66
     1
 10
0.0
 20
0.0
 30
0.0
  0
VERTEX
  5
417
  8
PROFILE
 10
6.581650777768182
 20
-0.6691758897569442
 30
0.0
  0
VERTEX
  5
418
  8
PROFILE
 10
6.559979906457414
 20
-0.6724895901150183
 30
0.0
  0
SEQEND
  5
DF6
  8
PROFILE
  0
POLYLINE
  5
CB
  8
PROFILE
 66
     1
 10
0.0
 20
0.0
 30
0.0
  0
VERTEX
  5
419
  8
PROFILE
 10
6.559979906457414
 20
-0.6724895901150183
 30
0.0
  0
VERTEX
  5
41A
  8
PROFILE
 10
6.541647319109323
 20
-0.6808344523111987
 30
0.0
  0
SEQEND
  5
DF7
  8
PROFILE
  0
POLYLINE
  5
CC
  8
PROFILE
 66
     1
 10
0.0
 20
0.0
 30
0.0
  0
VERTEX
  5
41B
  8
PROFILE
 10
6.524981330611062
 20
-0.6941596137152781
 30
0.0
  0
VERTEX
  5
41C
  8
PROFILE
 10
6.511657016917489
 20
-0.7091547648111987
 30
0.0
  0
SEQEND
  5
DF8
  8
PROFILE
  0
POLYLINE
  5
CD
  8
PROFILE
 66
     1
 10
0.0
 20
0.0
 30
0.0
  0
VERTEX
  5
41D
  8
PROFILE
 10
6.511657016917489
 20
-0.7091547648111987
 30
0.0
  0
VERTEX
  5
41E
  8
PROFILE
 10
6.503313850142312
 20
-0.7291564941406246
 30
0.0
  0
SEQEND
  5
DF9
  8
PROFILE
  0
POLYLINE
  5
CE
  8
PROFILE
 66
     1
 10
0.0
 20
0.0
 30
0.0
  0
VERTEX
  5
41F
  8
PROFILE
 10
6.503313850142312
 20
-0.7291564941406246
 30
0.0
  0
VERTEX
  5
420
  8
PROFILE
 10
6.501667596344568
 20
-0.7491582234700522
 30
0.0
  0
SEQEND
  5
DFA
  8
PROFILE
  0
POLYLINE
  5
CF
  8
PROFILE
 66
     1
 10
0.0
 20
0.0
 30
0.0
  0
VERTEX
  5
421
  8
PROFILE
 10
6.503313850142312
 20
-0.7708299424913192
 30
0.0
  0
VERTEX
  5
422
  8
PROFILE
 10
6.511657016917489
 20
-0.7891599867078987
 30
0.0
  0
SEQEND
  5
DFB
  8
PROFILE
  0
POLYLINE
  5
D0
  8
PROFILE
 66
     1
 10
0.0
 20
0.0
 30
0.0
  0
VERTEX
  5
423
  8
PROFILE
 10
6.524981330611062
 20
-0.8058251274956603
 30
0.0
  0
VERTEX
  5
424
  8
PROFILE
 10
6.541647319109323
 20
-0.8191740247938362
 30
0.0
  0
SEQEND
  5
DFC
  8
PROFILE
  0
POLYLINE
  5
D1
  8
PROFILE
 66
     1
 10
0.0
 20
0.0
 30
0.0
  0
VERTEX
  5
425
  8
PROFILE
 10
6.541647319109323
 20
-0.8191740247938362
 30
0.0
  0
VERTEX
  5
426
  8
PROFILE
 10
6.559979906457414
 20
-0.8274943033854174
 30
0.0
  0
SEQEND
  5
DFD
  8
PROFILE
  0
POLYLINE
  5
D2
  8
PROFILE
 66
     1
 10
0.0
 20
0.0
 30
0.0
  0
VERTEX
  5
427
  8
PROFILE
 10
6.559979906457414
 20
-0.8274943033854174
 30
0.0
  0
VERTEX
  5
428
  8
PROFILE
 10
6.581650777768182
 20
-0.8291625976562496
 30
0.0
  0
SEQEND
  5
DFE
  8
PROFILE
  0
POLYLINE
  5
D3
  8
PROFILE
 66
     1
 10
0.0
 20
0.0
 30
0.0
  0
VERTEX
  5
429
  8
PROFILE
 10
6.581650777768182
 20
-0.8291625976562496
 30
0.0
  0
VERTEX
  5
42A
  8
PROFILE
 10
6.601649963966096
 20
-0.8274943033854174
 30
0.0
  0
SEQEND
  5
DFF
  8
PROFILE
  0
POLYLINE
  5
D4
  8
PROFILE
 66
     1
 10
0.0
 20
0.0
 30
0.0
  0
VERTEX
  5
42B
  8
PROFILE
 10
6.621652541006029
 20
-0.8191740247938362
 30
0.0
  0
VERTEX
  5
42C
  8
PROFILE
 10
6.638316834083284
 20
-0.8058251274956603
 30
0.0
  0
SEQEND
  5
E00
  8
PROFILE
  0
POLYLINE
  5
D5
  8
PROFILE
 66
     1
 10
0.0
 20
0.0
 30
0.0
  0
VERTEX
  5
42D
  8
PROFILE
 10
6.638316834083284
 20
-0.8058251274956603
 30
0.0
  0
VERTEX
  5
42E
  8
PROFILE
 10
6.64999828482113
 20
-0.7891599867078987
 30
0.0
  0
SEQEND
  5
E01
  8
PROFILE
  0
POLYLINE
  5
D6
  8
PROFILE
 66
     1
 10
0.0
 20
0.0
 30
0.0
  0
VERTEX
  5
42F
  8
PROFILE
 10
6.64999828482113
 20
-0.7891599867078987
 30
0.0
  0
VERTEX
  5
430
  8
PROFILE
 10
6.658319411123216
 20
-0.7708299424913192
 30
0.0
  0
SEQEND
  5
E02
  8
PROFILE
  0
POLYLINE
  5
D7
  8
PROFILE
 66
     1
 10
0.0
 20
0.0
 30
0.0
  0
VERTEX
  5
431
  8
PROFILE
 10
6.658319411123216
 20
-0.7708299424913192
 30
0.0
  0
VERTEX
  5
432
  8
PROFILE
 10
6.661657695085886
 20
-0.7491582234700522
 30
0.0
  0
SEQEND
  5
E03
  8
PROFILE
  0
POLYLINE
  5
D8
  8
PROFILE
 66
     1
 10
0.0
 20
0.0
 30
0.0
  0
VERTEX
  5
433
  8
PROFILE
 10
4.658324497386239
 20
-0.7291564941406246
 30
0.0
  0
VERTEX
  5
434
  8
PROFILE
 10
4.649979635190057
 20
-0.7091547648111987
 30
0.0
  0
SEQEND
  5
E04
  8
PROFILE
  0
POLYLINE
  5
D9
  8
PROFILE
 66
     1
 10
0.0
 20
0.0
 30
0.0
  0
VERTEX
  5
435
  8
PROFILE
 10
4.638321920346307
 20
-0.6941596137152781
 30
0.0
  0
VERTEX
  5
436
  8
PROFILE
 10
4.621659322690057
 20
-0.6808344523111987
 30
0.0
  0
SEQEND
  5
E05
  8
PROFILE
  0
POLYLINE
  5
DA
  8
PROFILE
 66
     1
 10
0.0
 20
0.0
 30
0.0
  0
VERTEX
  5
437
  8
PROFILE
 10
4.621659322690057
 20
-0.6808344523111987
 30
0.0
  0
VERTEX
  5
438
  8
PROFILE
 10
4.601656745650125
 20
-0.6724895901150183
 30
0.0
  0
SEQEND
  5
E06
  8
PROFILE
  0
POLYLINE
  5
DB
  8
PROFILE
 66
     1
 10
0.0
 20
0.0
 30
0.0
  0
VERTEX
  5
439
  8
PROFILE
 10
4.601656745650125
 20
-0.6724895901150183
 30
0.0
  0
VERTEX
  5
43A
  8
PROFILE
 10
4.581655864031198
 20
-0.6691758897569442
 30
0.0
  0
SEQEND
  5
E07
  8
PROFILE
  0
POLYLINE
  5
DC
  8
PROFILE
 66
     1
 10
0.0
 20
0.0
 30
0.0
  0
VERTEX
  5
43B
  8
PROFILE
 10
4.559984992720437
 20
-0.6724895901150183
 30
0.0
  0
VERTEX
  5
43C
  8
PROFILE
 10
4.541652405372346
 20
-0.6808344523111987
 30
0.0
  0
SEQEND
  5
E08
  8
PROFILE
  0
POLYLINE
  5
DD
  8
PROFILE
 66
     1
 10
0.0
 20
0.0
 30
0.0
  0
VERTEX
  5
43D
  8
PROFILE
 10
4.541652405372346
 20
-0.6808344523111987
 30
0.0
  0
VERTEX
  5
43E
  8
PROFILE
 10
4.524988112295091
 20
-0.6941596137152781
 30
0.0
  0
SEQEND
  5
E09
  8
PROFILE
  0
POLYLINE
  5
DE
  8
PROFILE
 66
     1
 10
0.0
 20
0.0
 30
0.0
  0
VERTEX
  5
43F
  8
PROFILE
 10
4.503318936405336
 20
-0.7291564941406246
 30
0.0
  0
VERTEX
  5
440
  8
PROFILE
 10
4.501648946713495
 20
-0.7491582234700522
 30
0.0
  0
SEQEND
  5
E0A
  8
PROFILE
  0
POLYLINE
  5
DF
  8
PROFILE
 66
     1
 10
0.0
 20
0.0
 30
0.0
  0
VERTEX
  5
441
  8
PROFILE
 10
4.503318936405336
 20
-0.7708299424913192
 30
0.0
  0
VERTEX
  5
442
  8
PROFILE
 10
4.511662103180505
 20
-0.7891599867078987
 30
0.0
  0
SEQEND
  5
E0B
  8
PROFILE
  0
POLYLINE
  5
E0
  8
PROFILE
 66
     1
 10
0.0
 20
0.0
 30
0.0
  0
VERTEX
  5
443
  8
PROFILE
 10
4.559984992720437
 20
-0.8274943033854174
 30
0.0
  0
VERTEX
  5
444
  8
PROFILE
 10
4.581655864031198
 20
-0.8291625976562496
 30
0.0
  0
SEQEND
  5
E0C
  8
PROFILE
  0
POLYLINE
  5
E1
  8
PROFILE
 66
     1
 10
0.0
 20
0.0
 30
0.0
  0
VERTEX
  5
445
  8
PROFILE
 10
4.621659322690057
 20
-0.8191740247938362
 30
0.0
  0
VERTEX
  5
446
  8
PROFILE
 10
4.638321920346307
 20
-0.8058251274956603
 30
0.0
  0
SEQEND
  5
E0D
  8
PROFILE
  0
POLYLINE
  5
E2
  8
PROFILE
 66
     1
 10
0.0
 20
0.0
 30
0.0
  0
VERTEX
  5
447
  8
PROFILE
 10
4.638321920346307
 20
-0.8058251274956603
 30
0.0
  0
VERTEX
  5
448
  8
PROFILE
 10
4.649979635190057
 20
-0.7891599867078987
 30
0.0
  0
SEQEND
  5
E0E
  8
PROFILE
  0
POLYLINE
  5
E3
  8
PROFILE
 66
     1
 10
0.0
 20
0.0
 30
0.0
  0
VERTEX
  5
449
  8
PROFILE
 10
4.649979635190057
 20
-0.7891599867078987
 30
0.0
  0
VERTEX
  5
44A
  8
PROFILE
 10
4.658324497386239
 20
-0.7708299424913192
 30
0.0
  0
SEQEND
  5
E0F
  8
PROFILE
  0
POLYLINE
  5
E4
  8
PROFILE
 66
     1
 10
0.0
 20
0.0
 30
0.0
  0
VERTEX
  5
44B
  8
PROFILE
 10
4.658324497386239
 20
-0.7708299424913192
 30
0.0
  0
VERTEX
  5
44C
  8
PROFILE
 10
4.661661085927904
 20
-0.7491582234700522
 30
0.0
  0
SEQEND
  5
E10
  8
PROFILE
  0
POLYLINE
  5
E5
  8
PROFILE
 66
     1
 10
0.0
 20
0.0
 30
0.0
  0
VERTEX
  5
44D
  8
PROFILE
 10
6.581650777768182
 20
-0.8391528659396701
 30
0.0
  0
VERTEX
  5
44E
  8
PROFILE
 10
6.581650777768182
 20
-0.6591627332899299
 30
0.0
  0
SEQEND
  5
E11
  8
PROFILE
  0
POLYLINE
  5
E6
  8
PROFILE
 66
     1
 10
0.0
 20
0.0
 30
0.0
  0
VERTEX
  5
44F
  8
PROFILE
 10
4.491659526140573
 20
-0.7491582234700522
 30
0.0
  0
VERTEX
  5
450
  8
PROFILE
 10
4.671672546973909
 20
-0.7491582234700522
 30
0.0
  0
SEQEND
  5
E12
  8
PROFILE
  0
POLYLINE
  5
E7
  8
PROFILE
 66
     1
 10
0.0
 20
0.0
 30
0.0
  0
VERTEX
  5
451
  8
PROFILE
 10
6.64999828482113
 20
-0.7091547648111987
 30
0.0
  0
VERTEX
  5
452
  8
PROFILE
 10
6.638316834083284
 20
-0.6941596137152781
 30
0.0
  0
SEQEND
  5
E13
  8
PROFILE
  0
POLYLINE
  5
E8
  8
PROFILE
 66
     1
 10
0.0
 20
0.0
 30
0.0
  0
VERTEX
  5
453
  8
PROFILE
 10
6.638316834083284
 20
-0.6941596137152781
 30
0.0
  0
VERTEX
  5
454
  8
PROFILE
 10
6.621652541006029
 20
-0.6808344523111987
 30
0.0
  0
SEQEND
  5
E14
  8
PROFILE
  0
POLYLINE
  5
E9
  8
PROFILE
 66
     1
 10
0.0
 20
0.0
 30
0.0
  0
VERTEX
  5
455
  8
PROFILE
 10
6.621652541006029
 20
-0.6808344523111987
 30
0.0
  0
VERTEX
  5
456
  8
PROFILE
 10
6.601649963966096
 20
-0.6724895901150183
 30
0.0
  0
SEQEND
  5
E15
  8
PROFILE
  0
POLYLINE
  5
EA
  8
PROFILE
 66
     1
 10
0.0
 20
0.0
 30
0.0
  0
VERTEX
  5
457
  8
PROFILE
 10
6.601649963966096
 20
-0.6724895901150183
 30
0.0
  0
VERTEX
  5
458
  8
PROFILE
 10
6.581650777768182
 20
-0.6691758897569442
 30
0.0
  0
SEQEND
  5
E16
  8
PROFILE
  0
POLYLINE
  5
EB
  8
PROFILE
 66
     1
 10
0.0
 20
0.0
 30
0.0
  0
VERTEX
  5
459
  8
PROFILE
 10
6.541647319109323
 20
-0.6808344523111987
 30
0.0
  0
VERTEX
  5
45A
  8
PROFILE
 10
6.524981330611062
 20
-0.6941596137152781
 30
0.0
  0
SEQEND
  5
E17
  8
PROFILE
  0
POLYLINE
  5
EC
  8
PROFILE
 66
     1
 10
0.0
 20
0.0
 30
0.0
  0
VERTEX
  5
45B
  8
PROFILE
 10
6.501667596344568
 20
-0.7491582234700522
 30
0.0
  0
VERTEX
  5
45C
  8
PROFILE
 10
6.503313850142312
 20
-0.7708299424913192
 30
0.0
  0
SEQEND
  5
E18
  8
PROFILE
  0
POLYLINE
  5
ED
  8
PROFILE
 66
     1
 10
0.0
 20
0.0
 30
0.0
  0
VERTEX
  5
45D
  8
PROFILE
 10
6.511657016917489
 20
-0.7891599867078987
 30
0.0
  0
VERTEX
  5
45E
  8
PROFILE
 10
6.524981330611062
 20
-0.8058251274956603
 30
0.0
  0
SEQEND
  5
E19
  8
PROFILE
  0
POLYLINE
  5
EE
  8
PROFILE
 66
     1
 10
0.0
 20
0.0
 30
0.0
  0
VERTEX
  5
45F
  8
PROFILE
 10
6.601649963966096
 20
-0.8274943033854174
 30
0.0
  0
VERTEX
  5
460
  8
PROFILE
 10
6.621652541006029
 20
-0.8191740247938362
 30
0.0
  0
SEQEND
  5
E1A
  8
PROFILE
  0
POLYLINE
  5
EF
  8
PROFILE
 66
     1
 10
0.0
 20
0.0
 30
0.0
  0
VERTEX
  5
461
  8
PROFILE
 10
4.661661085927904
 20
-0.7491582234700522
 30
0.0
  0
VERTEX
  5
462
  8
PROFILE
 10
4.658324497386239
 20
-0.7291564941406246
 30
0.0
  0
SEQEND
  5
E1B
  8
PROFILE
  0
POLYLINE
  5
F0
  8
PROFILE
 66
     1
 10
0.0
 20
0.0
 30
0.0
  0
VERTEX
  5
463
  8
PROFILE
 10
4.649979635190057
 20
-0.7091547648111987
 30
0.0
  0
VERTEX
  5
464
  8
PROFILE
 10
4.638321920346307
 20
-0.6941596137152781
 30
0.0
  0
SEQEND
  5
E1C
  8
PROFILE
  0
POLYLINE
  5
F1
  8
PROFILE
 66
     1
 10
0.0
 20
0.0
 30
0.0
  0
VERTEX
  5
465
  8
PROFILE
 10
4.581655864031198
 20
-0.6691758897569442
 30
0.0
  0
VERTEX
  5
466
  8
PROFILE
 10
4.559984992720437
 20
-0.6724895901150183
 30
0.0
  0
SEQEND
  5
E1D
  8
PROFILE
  0
POLYLINE
  5
F2
  8
PROFILE
 66
     1
 10
0.0
 20
0.0
 30
0.0
  0
VERTEX
  5
467
  8
PROFILE
 10
4.524988112295091
 20
-0.6941596137152781
 30
0.0
  0
VERTEX
  5
468
  8
PROFILE
 10
4.511662103180505
 20
-0.7091547648111987
 30
0.0
  0
SEQEND
  5
E1E
  8
PROFILE
  0
POLYLINE
  5
F3
  8
PROFILE
 66
     1
 10
0.0
 20
0.0
 30
0.0
  0
VERTEX
  5
469
  8
PROFILE
 10
4.511662103180505
 20
-0.7091547648111987
 30
0.0
  0
VERTEX
  5
46A
  8
PROFILE
 10
4.503318936405336
 20
-0.7291564941406246
 30
0.0
  0
SEQEND
  5
E1F
  8
PROFILE
  0
POLYLINE
  5
F4
  8
PROFILE
 66
     1
 10
0.0
 20
0.0
 30
0.0
  0
VERTEX
  5
46B
  8
PROFILE
 10
4.501648946713495
 20
-0.7491582234700522
 30
0.0
  0
VERTEX
  5
46C
  8
PROFILE
 10
4.503318936405336
 20
-0.7708299424913192
 30
0.0
  0
SEQEND
  5
E20
  8
PROFILE
  0
POLYLINE
  5
F5
  8
PROFILE
 66
     1
 10
0.0
 20
0.0
 30
0.0
  0
VERTEX
  5
46D
  8
PROFILE
 10
4.511662103180505
 20
-0.7891599867078987
 30
0.0
  0
VERTEX
  5
46E
  8
PROFILE
 10
4.524988112295091
 20
-0.8058251274956603
 30
0.0
  0
SEQEND
  5
E21
  8
PROFILE
  0
POLYLINE
  5
F6
  8
PROFILE
 66
     1
 10
0.0
 20
0.0
 30
0.0
  0
VERTEX
  5
46F
  8
PROFILE
 10
4.524988112295091
 20
-0.8058251274956603
 30
0.0
  0
VERTEX
  5
470
  8
PROFILE
 10
4.541652405372346
 20
-0.8191740247938362
 30
0.0
  0
SEQEND
  5
E22
  8
PROFILE
  0
POLYLINE
  5
F7
  8
PROFILE
 66
     1
 10
0.0
 20
0.0
 30
0.0
  0
VERTEX
  5
471
  8
PROFILE
 10
4.541652405372346
 20
-0.8191740247938362
 30
0.0
  0
VERTEX
  5
472
  8
PROFILE
 10
4.559984992720437
 20
-0.8274943033854174
 30
0.0
  0
SEQEND
  5
E23
  8
PROFILE
  0
POLYLINE
  5
F8
  8
PROFILE
 66
     1
 10
0.0
 20
0.0
 30
0.0
  0
VERTEX
  5
473
  8
PROFILE
 10
4.581655864031198
 20
-0.8291625976562496
 30
0.0
  0
VERTEX
  5
474
  8
PROFILE
 10
4.601656745650125
 20
-0.8274943033854174
 30
0.0
  0
SEQEND
  5
E24
  8
PROFILE
  0
POLYLINE
  5
F9
  8
PROFILE
 66
     1
 10
0.0
 20
0.0
 30
0.0
  0
VERTEX
  5
475
  8
PROFILE
 10
4.601656745650125
 20
-0.8274943033854174
 30
0.0
  0
VERTEX
  5
476
  8
PROFILE
 10
4.621659322690057
 20
-0.8191740247938362
 30
0.0
  0
SEQEND
  5
E25
  8
PROFILE
  0
POLYLINE
  5
FA
  8
PROFILE
 66
     1
 10
0.0
 20
0.0
 30
0.0
  0
VERTEX
  5
477
  8
PROFILE
 10
6.491656135298562
 20
-0.7491582234700522
 30
0.0
  0
VERTEX
  5
478
  8
PROFILE
 10
6.671643724816789
 20
-0.7491582234700522
 30
0.0
  0
SEQEND
  5
E26
  8
PROFILE
  0
POLYLINE
  5
FB
  8
PROFILE
 66
     1
 10
0.0
 20
0.0
 30
0.0
  0
VERTEX
  5
479
  8
PROFILE
 10
4.581655864031198
 20
-0.8391528659396701
 30
0.0
  0
VERTEX
  5
47A
  8
PROFILE
 10
4.581655864031198
 20
-0.6591627332899299
 30
0.0
  0
SEQEND
  5
E27
  8
PROFILE
  0
POLYLINE
  5
FC
  8
PROFILE
 66
     1
 10
0.0
 20
0.0
 30
0.0
 70
     1
  0
VERTEX
  5
47B
  8
PROFILE
 10
7.199933973078394
 20
-1.061399141559377
 30
0.0
  0
VERTEX
  5
47C
  8
PROFILE
 10
7.199933973078394
 20
1.065802343457737
 30
0.0
  0
VERTEX
  5
47D
  8
PROFILE
 10
6.514995300880159
 20
1.077500237358941
 30
0.0
  0
VERTEX
  5
47E
  8
PROFILE
 10
4.208327549144053
 20
1.112497117784287
 30
0.0
  0
VERTEX
  5
47F
  8
PROFILE
 10
4.1683257859062
 20
1.109158833821614
 30
0.0
  0
VERTEX
  5
480
  8
PROFILE
 10
4.129990621518184
 20
1.100838555230034
 30
0.0
  0
VERTEX
  5
481
  8
PROFILE
 10
4.093327142243007
 20
1.085843404134114
 30
0.0
  0
VERTEX
  5
482
  8
PROFILE
 10
4.059996860667491
 20
1.065817091200085
 30
0.0
  0
VERTEX
  5
483
  8
PROFILE
 10
4.028316223731723
 20
1.040833367241753
 30
0.0
  0
VERTEX
  5
484
  8
PROFILE
 10
4.003332499773395
 20
1.010821024576821
 30
0.0
  0
VERTEX
  5
485
  8
PROFILE
 10
3.981661628462627
 20
0.9774941338433156
 30
0.0
  0
VERTEX
  5
486
  8
PROFILE
 10
3.966665629656207
 20
0.9408272637261281
 30
0.0
  0
VERTEX
  5
487
  8
PROFILE
 10
3.956654168610195
 20
0.9024937947591138
 30
0.0
  0
VERTEX
  5
488
  8
PROFILE
 10
3.954985874339366
 20
0.8624903361002585
 30
0.0
  0
VERTEX
  5
489
  8
PROFILE
 10
3.954985874339366
 20
-0.3091515435112853
 30
0.0
  0
VERTEX
  5
48A
  8
PROFILE
 10
3.954985874339366
 20
-0.8624911838107638
 30
0.0
  0
VERTEX
  5
48B
  8
PROFILE
 10
3.956654168610195
 20
-0.9008263481987853
 30
0.0
  0
VERTEX
  5
48C
  8
PROFILE
 10
3.966665629656207
 20
-0.9408281114366317
 30
0.0
  0
VERTEX
  5
48D
  8
PROFILE
 10
3.981661628462627
 20
-0.9758249918619799
 30
0.0
  0
VERTEX
  5
48E
  8
PROFILE
 10
4.003332499773395
 20
-1.010821872287326
 30
0.0
  0
VERTEX
  5
48F
  8
PROFILE
 10
4.028316223731723
 20
-1.040835910373264
 30
0.0
  0
VERTEX
  5
490
  8
PROFILE
 10
4.059996860667491
 20
-1.065842522515192
 30
0.0
  0
VERTEX
  5
491
  8
PROFILE
 10
4.093327142243007
 20
-1.085819668240018
 30
0.0
  0
VERTEX
  5
492
  8
PROFILE
 10
4.129990621518184
 20
-1.100839402940538
 30
0.0
  0
VERTEX
  5
493
  8
PROFILE
 10
4.1683257859062
 20
-1.109159681532117
 30
0.0
  0
VERTEX
  5
494
  8
PROFILE
 10
4.208327549144053
 20
-1.112496270073785
 30
0.0
  0
SEQEND
  5
E28
  8
PROFILE
  0
POLYLINE
  5
FD
  8
PROFILE
 66
     1
 10
0.0
 20
0.0
 30
0.0
  0
VERTEX
  5
495
  8
PROFILE
 10
-6.46499534039588
 20
-4.460832807752823
 30
0.0
  0
VERTEX
  5
496
  8
PROFILE
 10
-6.524999680673657
 20
-4.570827907986111
 30
0.0
  0
SEQEND
  5
E29
  8
PROFILE
  0
POLYLINE
  5
FE
  8
PROFILE
 66
     1
 10
0.0
 20
0.0
 30
0.0
  0
VERTEX
  5
497
  8
PROFILE
 10
-6.553321688594664
 20
-4.625826093885635
 30
0.0
  0
VERTEX
  5
498
  8
PROFILE
 10
-6.61332560501719
 20
-4.735821194118923
 30
0.0
  0
SEQEND
  5
E2A
  8
PROFILE
  0
POLYLINE
  5
FF
  8
PROFILE
 66
     1
 10
0.0
 20
0.0
 30
0.0
  0
VERTEX
  5
499
  8
PROFILE
 10
-6.643315907209029
 20
-4.790819803873699
 30
0.0
  0
VERTEX
  5
49A
  8
PROFILE
 10
-6.701674417544318
 20
-4.900814904106987
 30
0.0
  0
SEQEND
  5
E2B
  8
PROFILE
  0
POLYLINE
  5
100
  8
PROFILE
 66
     1
 10
0.0
 20
0.0
 30
0.0
  0
VERTEX
  5
49B
  8
PROFILE
 10
-6.731664719736157
 20
-4.955837673611111
 30
0.0
  0
VERTEX
  5
49C
  8
PROFILE
 10
-6.791668636158683
 20
-5.065832773844402
 30
0.0
  0
SEQEND
  5
E2C
  8
PROFILE
  0
POLYLINE
  5
101
  8
PROFILE
 66
     1
 10
0.0
 20
0.0
 30
0.0
  0
VERTEX
  5
49D
  8
PROFILE
 10
-5.526671365786504
 20
-4.564153035481771
 30
0.0
  0
VERTEX
  5
49E
  8
PROFILE
 10
-5.586674858353778
 20
-4.674172719319662
 30
0.0
  0
SEQEND
  5
E2D
  8
PROFILE
  0
POLYLINE
  5
102
  8
PROFILE
 66
     1
 10
0.0
 20
0.0
 30
0.0
  0
VERTEX
  5
49F
  8
PROFILE
 10
-5.704991508744405
 20
-4.894162919786242
 30
0.0
  0
VERTEX
  5
4A0
  8
PROFILE
 10
-5.763326707040845
 20
-5.004161410861546
 30
0.0
  0
SEQEND
  5
E2E
  8
PROFILE
  0
POLYLINE
  5
103
  8
PROFILE
 66
     1
 10
0.0
 20
0.0
 30
0.0
  0
VERTEX
  5
4A1
  8
PROFILE
 10
-5.793317009232686
 20
-5.059157901340061
 30
0.0
  0
VERTEX
  5
4A2
  8
PROFILE
 10
-5.853344237694056
 20
-5.169154696994358
 30
0.0
  0
SEQEND
  5
E2F
  8
PROFILE
  0
POLYLINE
  5
104
  8
PROFILE
 66
     1
 10
0.0
 20
0.0
 30
0.0
  0
VERTEX
  5
4A3
  8
PROFILE
 10
-5.883334539885896
 20
-5.224151611328125
 30
0.0
  0
VERTEX
  5
4A4
  8
PROFILE
 10
-5.941669738182338
 20
-5.334170871310764
 30
0.0
  0
SEQEND
  5
E30
  8
PROFILE
  0
POLYLINE
  5
105
  8
PROFILE
 66
     1
 10
0.0
 20
0.0
 30
0.0
  0
VERTEX
  5
4A5
  8
PROFILE
 10
-6.013331793303864
 20
-4.545821295844185
 30
0.0
  0
VERTEX
  5
4A6
  8
PROFILE
 10
-6.07333528587114
 20
-4.655840979682075
 30
0.0
  0
SEQEND
  5
E31
  8
PROFILE
  0
POLYLINE
  5
106
  8
PROFILE
 66
     1
 10
0.0
 20
0.0
 30
0.0
  0
VERTEX
  5
4A7
  8
PROFILE
 10
-6.101657293792146
 20
-4.710837470160591
 30
0.0
  0
VERTEX
  5
4A8
  8
PROFILE
 10
-6.161661634069924
 20
-4.820834265814888
 30
0.0
  0
SEQEND
  5
E32
  8
PROFILE
  0
POLYLINE
  5
107
  8
PROFILE
 66
     1
 10
0.0
 20
0.0
 30
0.0
  0
VERTEX
  5
4A9
  8
PROFILE
 10
-6.191675672155862
 20
-4.875831180148655
 30
0.0
  0
VERTEX
  5
4AA
  8
PROFILE
 10
-6.249986286847701
 20
-4.985827975802952
 30
0.0
  0
SEQEND
  5
E33
  8
PROFILE
  0
POLYLINE
  5
108
  8
PROFILE
 66
     1
 10
0.0
 20
0.0
 30
0.0
  0
VERTEX
  5
4AB
  8
PROFILE
 10
-5.614996018564282
 20
-4.729169209798178
 30
0.0
  0
VERTEX
  5
4AC
  8
PROFILE
 10
-5.675000358842061
 20
-4.839166005452475
 30
0.0
  0
SEQEND
  5
E34
  8
PROFILE
  0
POLYLINE
  5
109
  8
PROFILE
 66
     1
 10
0.0
 20
0.0
 30
0.0
  0
VERTEX
  5
4AD
  8
PROFILE
 10
-5.971660888084681
 20
-5.389167785644531
 30
0.0
  0
VERTEX
  5
4AE
  8
PROFILE
 10
-6.031663532941453
 20
-5.499164581298828
 30
0.0
  0
SEQEND
  5
E35
  8
PROFILE
  0
POLYLINE
  5
10A
  8
PROFILE
 66
     1
 10
0.0
 20
0.0
 30
0.0
  0
VERTEX
  5
4AF
  8
PROFILE
 10
-6.280000324933638
 20
-5.040824466281467
 30
0.0
  0
VERTEX
  5
4B0
  8
PROFILE
 10
-6.340004665211417
 20
-5.150821261935764
 30
0.0
  0
SEQEND
  5
E36
  8
PROFILE
  0
POLYLINE
  5
10B
  8
PROFILE
 66
     1
 10
0.0
 20
0.0
 30
0.0
  0
VERTEX
  5
4B1
  8
PROFILE
 10
-6.368326673132424
 20
-5.205818176269531
 30
0.0
  0
VERTEX
  5
4B2
  8
PROFILE
 10
-6.428330165699698
 20
-5.315837436252171
 30
0.0
  0
SEQEND
  5
E37
  8
PROFILE
  0
POLYLINE
  5
10C
  8
PROFILE
 66
     1
 10
0.0
 20
0.0
 30
0.0
  0
VERTEX
  5
4B3
  8
PROFILE
 10
-6.458320467891539
 20
-5.370836046006945
 30
0.0
  0
VERTEX
  5
4B4
  8
PROFILE
 10
-6.516656513898482
 20
-5.480831146240234
 30
0.0
  0
SEQEND
  5
E38
  8
PROFILE
  0
POLYLINE
  5
10D
  8
PROFILE
 66
     1
 10
0.0
 20
0.0
 30
0.0
 70
     1
  0
VERTEX
  5
4B5
  8
PROFILE
 10
-3.735009785382859
 20
-0.5727799653998829
 30
0.0
 42
0.4142135623730951
  0
VERTEX
  5
4B6
  8
PROFILE
 10
-3.7997238012384
 20
-0.6374939812554241
 30
0.0
 42
0.4142135623730951
  0
VERTEX
  5
4B7
  8
PROFILE
 10
-3.735009785382859
 20
-0.7022079971109672
 30
0.0
 42
0.4142135623730951
  0
VERTEX
  5
4B8
  8
PROFILE
 10
-3.670295769527316
 20
-0.6374939812554241
 30
0.0
 42
0.4142135623730951
  0
SEQEND
  5
E39
  8
PROFILE
  0
POLYLINE
  5
10E
  8
PROFILE
 66
     1
 10
0.0
 20
0.0
 30
0.0
 70
     1
  0
VERTEX
  5
4B9
  8
PROFILE
 10
-3.73509717638553
 20
1.127304797700269
 30
0.0
 42
0.4142135623730951
  0
VERTEX
  5
4BA
  8
PROFILE
 10
-3.799811192241071
 20
1.062590781844726
 30
0.0
 42
0.4142135623730951
  0
VERTEX
  5
4BB
  8
PROFILE
 10
-3.73509717638553
 20
0.9978767659891834
 30
0.0
 42
0.4142135623730951
  0
VERTEX
  5
4BC
  8
PROFILE
 10
-3.670383160529987
 20
1.062590781844726
 30
0.0
 42
0.4142135623730951
  0
SEQEND
  5
E3A
  8
PROFILE
  0
POLYLINE
  5
10F
  8
PROFILE
 66
     1
 10
0.0
 20
0.0
 30
0.0
 70
     1
  0
VERTEX
  5
4BD
  8
PROFILE
 10
-3.734998341291062
 20
0.7022075732557167
 30
0.0
 42
0.4142135623730951
  0
VERTEX
  5
4BE
  8
PROFILE
 10
-3.799712357146603
 20
0.6374935574001737
 30
0.0
 42
0.4142135623730951
  0
VERTEX
  5
4BF
  8
PROFILE
 10
-3.734998341291062
 20
0.5727795415446306
 30
0.0
 42
0.4142135623730951
  0
VERTEX
  5
4C0
  8
PROFILE
 10
-3.670284325435519
 20
0.6374935574001737
 30
0.0
 42
0.4142135623730951
  0
SEQEND
  5
E3B
  8
PROFILE
  0
POLYLINE
  5
110
  8
PROFILE
 66
     1
 10
0.0
 20
0.0
 30
0.0
 70
     1
  0
VERTEX
  5
4C1
  8
PROFILE
 10
-3.734998341291062
 20
0.2772189325764622
 30
0.0
 42
0.4142135623730951
  0
VERTEX
  5
4C2
  8
PROFILE
 10
-3.799712357146603
 20
0.212504916720921
 30
0.0
 42
0.4142135623730951
  0
VERTEX
  5
4C3
  8
PROFILE
 10
-3.734998341291062
 20
0.1477909008653779
 30
0.0
 42
0.4142135623730951
  0
VERTEX
  5
4C4
  8
PROFILE
 10
-3.670284325435519
 20
0.212504916720921
 30
0.0
 42
0.4142135623730951
  0
SEQEND
  5
E3C
  8
PROFILE
  0
POLYLINE
  5
111
  8
PROFILE
 66
     1
 10
0.0
 20
0.0
 30
0.0
 70
     1
  0
VERTEX
  5
4C5
  8
PROFILE
 10
-3.734998341291062
 20
-0.1477917485758815
 30
0.0
 42
0.4142135623730951
  0
VERTEX
  5
4C6
  8
PROFILE
 10
-3.799712357146603
 20
-0.2125057644314228
 30
0.0
 42
0.4142135623730951
  0
VERTEX
  5
4C7
  8
PROFILE
 10
-3.734998341291062
 20
-0.2772197802869658
 30
0.0
 42
0.4142135623730951
  0
VERTEX
  5
4C8
  8
PROFILE
 10
-3.670284325435519
 20
-0.2125057644314228
 30
0.0
 42
0.4142135623730951
  0
SEQEND
  5
E3D
  8
PROFILE
  0
POLYLINE
  5
112
  8
PROFILE
 66
     1
 10
0.0
 20
0.0
 30
0.0
 70
     1
  0
VERTEX
  5
4C9
  8
PROFILE
 10
-3.735009785382815
 20
-0.9977902226969877
 30
0.0
 42
0.4142135623730951
  0
VERTEX
  5
4CA
  8
PROFILE
 10
-3.799723801238356
 20
-1.062504238552529
 30
0.0
 42
0.4142135623730951
  0
VERTEX
  5
4CB
  8
PROFILE
 10
-3.735009785382815
 20
-1.127218254408072
 30
0.0
 42
0.4142135623730951
  0
VERTEX
  5
4CC
  8
PROFILE
 10
-3.670295769527272
 20
-1.062504238552529
 30
0.0
 42
0.4142135623730951
  0
SEQEND
  5
E3E
  8
PROFILE
  0
POLYLINE
  5
113
  8
PROFILE
 66
     1
 10
0.0
 20
0.0
 30
0.0
  0
VERTEX
  5
4CD
  8
PROFILE
 10
-1.579986422481383
 20
-1.842486063639324
 30
0.0
  0
VERTEX
  5
4CE
  8
PROFILE
 10
-1.579986422481383
 20
-1.967503017849393
 30
0.0
  0
SEQEND
  5
E3F
  8
PROFILE
  0
POLYLINE
  5
114
  8
PROFILE
 66
     1
 10
0.0
 20
0.0
 30
0.0
  0
VERTEX
  5
4CF
  8
PROFILE
 10
-1.579986422481383
 20
-2.03082021077474
 30
0.0
  0
VERTEX
  5
4D0
  8
PROFILE
 10
-1.579986422481383
 20
-2.1558346218533
 30
0.0
  0
SEQEND
  5
E40
  8
PROFILE
  0
POLYLINE
  5
115
  8
PROFILE
 66
     1
 10
0.0
 20
0.0
 30
0.0
  0
VERTEX
  5
4D1
  8
PROFILE
 10
-1.579986422481383
 20
-2.217506408691406
 30
0.0
  0
VERTEX
  5
4D2
  8
PROFILE
 10
-1.579986422481383
 20
-2.342497931586372
 30
0.0
  0
SEQEND
  5
E41
  8
PROFILE
  0
POLYLINE
  5
116
  8
PROFILE
 66
     1
 10
0.0
 20
0.0
 30
0.0
  0
VERTEX
  5
4D3
  8
PROFILE
 10
-1.579986422481383
 20
-2.405839708116319
 30
0.0
  0
VERTEX
  5
4D4
  8
PROFILE
 10
-1.579986422481383
 20
-2.530829535590278
 30
0.0
  0
SEQEND
  5
E42
  8
PROFILE
  0
POLYLINE
  5
117
  8
PROFILE
 66
     1
 10
0.0
 20
0.0
 30
0.0
  0
VERTEX
  5
4D5
  8
PROFILE
 10
-1.579986422481383
 20
-2.592503017849392
 30
0.0
  0
VERTEX
  5
4D6
  8
PROFILE
 10
-1.579986422481383
 20
-2.71749284532335
 30
0.0
  0
SEQEND
  5
E43
  8
PROFILE
  0
POLYLINE
  5
118
  8
PROFILE
 66
     1
 10
0.0
 20
0.0
 30
0.0
  0
VERTEX
  5
4D7
  8
PROFILE
 10
-1.830014396927998
 20
-1.842486063639324
 30
0.0
  0
VERTEX
  5
4D8
  8
PROFILE
 10
-1.830014396927998
 20
-1.967503017849393
 30
0.0
  0
SEQEND
  5
E44
  8
PROFILE
  0
POLYLINE
  5
119
  8
PROFILE
 66
     1
 10
0.0
 20
0.0
 30
0.0
  0
VERTEX
  5
4D9
  8
PROFILE
 10
-1.830014396927998
 20
-2.03082021077474
 30
0.0
  0
VERTEX
  5
4DA
  8
PROFILE
 10
-1.830014396927998
 20
-2.1558346218533
 30
0.0
  0
SEQEND
  5
E45
  8
PROFILE
  0
POLYLINE
  5
11A
  8
PROFILE
 66
     1
 10
0.0
 20
0.0
 30
0.0
  0
VERTEX
  5
4DB
  8
PROFILE
 10
-1.830014396927998
 20
-2.217506408691406
 30
0.0
  0
VERTEX
  5
4DC
  8
PROFILE
 10
-1.830014396927998
 20
-2.342497931586372
 30
0.0
  0
SEQEND
  5
E46
  8
PROFILE
  0
POLYLINE
  5
11B
  8
PROFILE
 66
     1
 10
0.0
 20
0.0
 30
0.0
  0
VERTEX
  5
4DD
  8
PROFILE
 10
-1.830014396927998
 20
-2.405839708116319
 30
0.0
  0
VERTEX
  5
4DE
  8
PROFILE
 10
-1.830014396927998
 20
-2.530829535590278
 30
0.0
  0
SEQEND
  5
E47
  8
PROFILE
  0
POLYLINE
  5
11C
  8
PROFILE
 66
     1
 10
0.0
 20
0.0
 30
0.0
  0
VERTEX
  5
4DF
  8
PROFILE
 10
-1.830014396927998
 20
-2.592503017849392
 30
0.0
  0
VERTEX
  5
4E0
  8
PROFILE
 10
-1.830014396927998
 20
-2.71749284532335
 30
0.0
  0
SEQEND
  5
E48
  8
PROFILE
  0
POLYLINE
  5
11D
  8
PROFILE
 66
     1
 10
0.0
 20
0.0
 30
0.0
  0
VERTEX
  5
4E1
  8
PROFILE
 10
-3.552990193196212
 20
-3.594065884735805
 30
0.0
  0
VERTEX
  5
4E2
  8
PROFILE
 10
-3.516370537112959
 20
-3.55744837735714
 30
0.0
  0
SEQEND
  5
E49
  8
PROFILE
  0
POLYLINE
  5
11E
  8
PROFILE
 66
     1
 10
0.0
 20
0.0
 30
0.0
  0
VERTEX
  5
4E3
  8
PROFILE
 10
-3.516370537112959
 20
-3.55744837735714
 30
0.0
  0
VERTEX
  5
4E4
  8
PROFILE
 10
-3.516370537112959
 20
-3.777120474825434
 30
0.0
  0
SEQEND
  5
E4A
  8
PROFILE
  0
POLYLINE
  5
11F
  8
PROFILE
 66
     1
 10
0.0
 20
0.0
 30
0.0
  0
VERTEX
  5
4E5
  8
PROFILE
 10
-3.552990193196212
 20
-3.777120474825434
 30
0.0
  0
VERTEX
  5
4E6
  8
PROFILE
 10
-3.479752313499425
 20
-3.777120474825434
 30
0.0
  0
SEQEND
  5
E4B
  8
PROFILE
  0
POLYLINE
  5
120
  8
PROFILE
 66
     1
 10
0.0
 20
0.0
 30
0.0
  0
VERTEX
  5
4E7
  8
PROFILE
 10
-3.406517298742095
 20
-3.777120474825434
 30
0.0
  0
VERTEX
  5
4E8
  8
PROFILE
 10
-3.406517298742095
 20
-3.740502251211903
 30
0.0
  0
SEQEND
  5
E4C
  8
PROFILE
  0
POLYLINE
  5
121
  8
PROFILE
 66
     1
 10
0.0
 20
0.0
 30
0.0
  0
VERTEX
  5
4E9
  8
PROFILE
 10
-3.333318095727918
 20
-3.740502251211903
 30
0.0
  0
VERTEX
  5
4EA
  8
PROFILE
 10
-3.296701304584115
 20
-3.777120474825434
 30
0.0
  0
SEQEND
  5
E4D
  8
PROFILE
  0
POLYLINE
  5
122
  8
PROFILE
 66
     1
 10
0.0
 20
0.0
 30
0.0
  0
VERTEX
  5
4EB
  8
PROFILE
 10
-3.296701304584115
 20
-3.777120474825434
 30
0.0
  0
VERTEX
  5
4EC
  8
PROFILE
 10
-3.223463424887328
 20
-3.777120474825434
 30
0.0
  0
SEQEND
  5
E4E
  8
PROFILE
  0
POLYLINE
  5
123
  8
PROFILE
 66
     1
 10
0.0
 20
0.0
 30
0.0
  0
VERTEX
  5
4ED
  8
PROFILE
 10
-3.223463424887328
 20
-3.777120474825434
 30
0.0
  0
VERTEX
  5
4EE
  8
PROFILE
 10
-3.186845201273801
 20
-3.740502251211903
 30
0.0
  0
SEQEND
  5
E4F
  8
PROFILE
  0
POLYLINE
  5
124
  8
PROFILE
 66
     1
 10
0.0
 20
0.0
 30
0.0
  0
VERTEX
  5
4EF
  8
PROFILE
 10
-3.186845201273801
 20
-3.740502251211903
 30
0.0
  0
VERTEX
  5
4F0
  8
PROFILE
 10
-3.186845201273801
 20
-3.667263655280255
 30
0.0
  0
SEQEND
  5
E50
  8
PROFILE
  0
POLYLINE
  5
125
  8
PROFILE
 66
     1
 10
0.0
 20
0.0
 30
0.0
  0
VERTEX
  5
4F1
  8
PROFILE
 10
-3.186845201273801
 20
-3.667263655280255
 30
0.0
  0
VERTEX
  5
4F2
  8
PROFILE
 10
-3.223463424887328
 20
-3.630645431666724
 30
0.0
  0
SEQEND
  5
E51
  8
PROFILE
  0
POLYLINE
  5
126
  8
PROFILE
 66
     1
 10
0.0
 20
0.0
 30
0.0
  0
VERTEX
  5
4F3
  8
PROFILE
 10
-3.223463424887328
 20
-3.630645431666724
 30
0.0
  0
VERTEX
  5
4F4
  8
PROFILE
 10
-3.333318095727918
 20
-3.630645431666724
 30
0.0
  0
SEQEND
  5
E52
  8
PROFILE
  0
POLYLINE
  5
127
  8
PROFILE
 66
     1
 10
0.0
 20
0.0
 30
0.0
  0
VERTEX
  5
4F5
  8
PROFILE
 10
-3.333318095727918
 20
-3.630645431666724
 30
0.0
  0
VERTEX
  5
4F6
  8
PROFILE
 10
-3.333318095727918
 20
-3.55744837735714
 30
0.0
  0
SEQEND
  5
E53
  8
PROFILE
  0
POLYLINE
  5
128
  8
PROFILE
 66
     1
 10
0.0
 20
0.0
 30
0.0
  0
VERTEX
  5
4F7
  8
PROFILE
 10
-3.333318095727918
 20
-3.55744837735714
 30
0.0
  0
VERTEX
  5
4F8
  8
PROFILE
 10
-3.186845201273801
 20
-3.55744837735714
 30
0.0
  0
SEQEND
  5
E54
  8
PROFILE
  0
POLYLINE
  5
129
  8
PROFILE
 66
     1
 10
0.0
 20
0.0
 30
0.0
  0
VERTEX
  5
4F9
  8
PROFILE
 10
-3.077030639585548
 20
-3.777120474825434
 30
0.0
  0
VERTEX
  5
4FA
  8
PROFILE
 10
-3.113610186516464
 20
-3.740502251211903
 30
0.0
  0
SEQEND
  5
E55
  8
PROFILE
  0
POLYLINE
  5
12A
  8
PROFILE
 66
     1
 10
0.0
 20
0.0
 30
0.0
  0
VERTEX
  5
4FB
  8
PROFILE
 10
-3.113610186516464
 20
-3.740502251211903
 30
0.0
  0
VERTEX
  5
4FC
  8
PROFILE
 10
-3.113610186516464
 20
-3.594065884735805
 30
0.0
  0
SEQEND
  5
E56
  8
PROFILE
  0
POLYLINE
  5
12B
  8
PROFILE
 66
     1
 10
0.0
 20
0.0
 30
0.0
  0
VERTEX
  5
4FD
  8
PROFILE
 10
-3.113610186516464
 20
-3.594065884735805
 30
0.0
  0
VERTEX
  5
4FE
  8
PROFILE
 10
-3.077030639585548
 20
-3.55744837735714
 30
0.0
  0
SEQEND
  5
E57
  8
PROFILE
  0
POLYLINE
  5
12C
  8
PROFILE
 66
     1
 10
0.0
 20
0.0
 30
0.0
  0
VERTEX
  5
4FF
  8
PROFILE
 10
-3.077030639585548
 20
-3.55744837735714
 30
0.0
  0
VERTEX
  5
500
  8
PROFILE
 10
-3.040410983502291
 20
-3.55744837735714
 30
0.0
  0
SEQEND
  5
E58
  8
PROFILE
  0
POLYLINE
  5
12D
  8
PROFILE
 66
     1
 10
0.0
 20
0.0
 30
0.0
  0
VERTEX
  5
501
  8
PROFILE
 10
-3.040410983502291
 20
-3.55744837735714
 30
0.0
  0
VERTEX
  5
502
  8
PROFILE
 10
-3.003794192358487
 20
-3.594065884735805
 30
0.0
  0
SEQEND
  5
E59
  8
PROFILE
  0
POLYLINE
  5
12E
  8
PROFILE
 66
     1
 10
0.0
 20
0.0
 30
0.0
  0
VERTEX
  5
503
  8
PROFILE
 10
-3.003794192358487
 20
-3.594065884735805
 30
0.0
  0
VERTEX
  5
504
  8
PROFILE
 10
-3.003794192358487
 20
-3.740502251211903
 30
0.0
  0
SEQEND
  5
E5A
  8
PROFILE
  0
POLYLINE
  5
12F
  8
PROFILE
 66
     1
 10
0.0
 20
0.0
 30
0.0
  0
VERTEX
  5
505
  8
PROFILE
 10
-3.003794192358487
 20
-3.740502251211903
 30
0.0
  0
VERTEX
  5
506
  8
PROFILE
 10
-3.040410983502291
 20
-3.777120474825434
 30
0.0
  0
SEQEND
  5
E5B
  8
PROFILE
  0
POLYLINE
  5
130
  8
PROFILE
 66
     1
 10
0.0
 20
0.0
 30
0.0
  0
VERTEX
  5
507
  8
PROFILE
 10
-2.158084828785634
 20
-0.4942456420898443
 30
0.0
  0
VERTEX
  5
508
  8
PROFILE
 10
-2.158084828785634
 20
-0.4808456420898443
 30
0.0
  0
VERTEX
  5
509
  8
PROFILE
 10
-2.155384261402399
 20
-0.4811178824636678
 30
0.0
  0
VERTEX
  5
50A
  8
PROFILE
 10
-2.152868944059247
 20
-0.4818986805143819
 30
0.0
  0
VERTEX
  5
50B
  8
PROFILE
 10
-2.150592761362314
 20
-0.4831341516358523
 30
0.0
  0
VERTEX
  5
50C
  8
PROFILE
 10
-2.148609597917734
 20
-0.4847704112219445
 30
0.0
  0
VERTEX
  5
50D
  8
PROFILE
 10
-2.146973338331642
 20
-0.4867535746665242
 30
0.0
  0
VERTEX
  5
50E
  8
PROFILE
 10
-2.145737867210172
 20
-0.4890297573634571
 30
0.0
  0
VERTEX
  5
50F
  8
PROFILE
 10
-2.144957069159458
 20
-0.4915450747066086
 30
0.0
  0
VERTEX
  5
510
  8
PROFILE
 10
-2.144684828785635
 20
-0.4942456420898443
 30
0.0
  0
VERTEX
  5
511
  8
PROFILE
 10
-2.144957069159458
 20
-0.4969462094730801
 30
0.0
  0
VERTEX
  5
512
  8
PROFILE
 10
-2.145737867210172
 20
-0.4994615268162316
 30
0.0
  0
VERTEX
  5
513
  8
PROFILE
 10
-2.146973338331642
 20
-0.5017377095131644
 30
0.0
  0
VERTEX
  5
514
  8
PROFILE
 10
-2.148609597917734
 20
-0.503720872957744
 30
0.0
  0
VERTEX
  5
515
  8
PROFILE
 10
-2.150592761362314
 20
-0.5053571325438364
 30
0.0
  0
VERTEX
  5
516
  8
PROFILE
 10
-2.152868944059247
 20
-0.5065926036653067
 30
0.0
  0
VERTEX
  5
517
  8
PROFILE
 10
-2.155384261402399
 20
-0.5073734017160209
 30
0.0
  0
VERTEX
  5
518
  8
PROFILE
 10
-2.158084828785634
 20
-0.5076456420898443
 30
0.0
  0
VERTEX
  5
519
  8
PROFILE
 10
-2.16078539616887
 20
-0.5073734017160209
 30
0.0
  0
VERTEX
  5
51A
  8
PROFILE
 10
-2.163300713512022
 20
-0.5065926036653067
 30
0.0
  0
VERTEX
  5
51B
  8
PROFILE
 10
-2.165576896208955
 20
-0.5053571325438364
 30
0.0
  0
VERTEX
  5
51C
  8
PROFILE
 10
-2.167560059653534
 20
-0.503720872957744
 30
0.0
  0
VERTEX
  5
51D
  8
PROFILE
 10
-2.169196319239627
 20
-0.5017377095131644
 30
0.0
  0
VERTEX
  5
51E
  8
PROFILE
 10
-2.170431790361097
 20
-0.4994615268162316
 30
0.0
  0
VERTEX
  5
51F
  8
PROFILE
 10
-2.171212588411811
 20
-0.4969462094730801
 30
0.0
  0
VERTEX
  5
520
  8
PROFILE
 10
-2.171484828785634
 20
-0.4942456420898443
 30
0.0
  0
VERTEX
  5
521
  8
PROFILE
 10
-2.171212588411811
 20
-0.4915450747066086
 30
0.0
  0
VERTEX
  5
522
  8
PROFILE
 10
-2.170431790361097
 20
-0.4890297573634571
 30
0.0
  0
VERTEX
  5
523
  8
PROFILE
 10
-2.169196319239627
 20
-0.4867535746665242
 30
0.0
  0
VERTEX
  5
524
  8
PROFILE
 10
-2.167560059653534
 20
-0.4847704112219445
 30
0.0
  0
VERTEX
  5
525
  8
PROFILE
 10
-2.165576896208955
 20
-0.4831341516358523
 30
0.0
  0
VERTEX
  5
526
  8
PROFILE
 10
-2.163300713512022
 20
-0.4818986805143819
 30
0.0
  0
VERTEX
  5
527
  8
PROFILE
 10
-2.16078539616887
 20
-0.4811178824636678
 30
0.0
  0
VERTEX
  5
528
  8
PROFILE
 10
-2.158084828785634
 20
-0.4808456420898443
 30
0.0
  0
SEQEND
  5
E5C
  8
PROFILE
  0
POLYLINE
  5
131
  8
PROFILE
 66
     1
 10
0.0
 20
0.0
 30
0.0
  0
VERTEX
  5
529
  8
PROFILE
 10
-2.066684828785634
 20
-0.4024456420898443
 30
0.0
  0
VERTEX
  5
52A
  8
PROFILE
 10
-2.069140114706424
 20
-0.4064003742630437
 30
0.0
  0
VERTEX
  5
52B
  8
PROFILE
 10
-2.071342754946103
 20
-0.4105740647258622
 30
0.0
  0
VERTEX
  5
52C
  8
PROFILE
 10
-2.073279031499398
 20
-0.4149708440230335
 30
0.0
  0
VERTEX
  5
52D
  8
PROFILE
 10
-2.07493522636104
 20
-0.4195948426992906
 30
0.0
  0
VERTEX
  5
52E
  8
PROFILE
 10
-2.076297621525756
 20
-0.4244501912993669
 30
0.0
  0
VERTEX
  5
52F
  8
PROFILE
 10
-2.077352498988274
 20
-0.4295410203679958
 30
0.0
  0
VERTEX
  5
530
  8
PROFILE
 10
-2.078086140743324
 20
-0.4348714604499104
 30
0.0
  0
VERTEX
  5
531
  8
PROFILE
 10
-2.078484828785634
 20
-0.4404456420898443
 30
0.0
  0
VERTEX
  5
532
  8
PROFILE
 10
-2.078072732936805
 20
-0.4482366494403197
 30
0.0
  0
VERTEX
  5
533
  8
PROFILE
 10
-2.076935712616671
 20
-0.4558025998960059
 30
0.0
  0
VERTEX
  5
534
  8
PROFILE
 10
-2.075110168664764
 20
-0.4631051911529156
 30
0.0
  0
VERTEX
  5
535
  8
PROFILE
 10
-2.072632501920616
 20
-0.4701061209070614
 30
0.0
  0
VERTEX
  5
536
  8
PROFILE
 10
-2.069539113223759
 20
-0.476767086854456
 30
0.0
  0
VERTEX
  5
537
  8
PROFILE
 10
-2.065866403413725
 20
-0.4830497866911121
 30
0.0
  0
VERTEX
  5
538
  8
PROFILE
 10
-2.061650773330046
 20
-0.4889159181130423
 30
0.0
  0
VERTEX
  5
539
  8
PROFILE
 10
-2.056928623812253
 20
-0.4943271788162594
 30
0.0
  0
VERTEX
  5
53A
  8
PROFILE
 10
-2.051736355699878
 20
-0.499245266496776
 30
0.0
  0
VERTEX
  5
53B
  8
PROFILE
 10
-2.046110369832452
 20
-0.5036318788506049
 30
0.0
  0
VERTEX
  5
53C
  8
PROFILE
 10
-2.04008706704951
 20
-0.5074487135737586
 30
0.0
  0
VERTEX
  5
53D
  8
PROFILE
 10
-2.03370284819058
 20
-0.51065746836225
 30
0.0
  0
VERTEX
  5
53E
  8
PROFILE
 10
-2.026994114095196
 20
-0.5132198409120916
 30
0.0
  0
VERTEX
  5
53F
  8
PROFILE
 10
-2.019997265602889
 20
-0.515097528919296
 30
0.0
  0
VERTEX
  5
540
  8
PROFILE
 10
-2.012748703553191
 20
-0.5162522300798761
 30
0.0
  0
VERTEX
  5
541
  8
PROFILE
 10
-2.005284828785634
 20
-0.5166456420898443
 30
0.0
  0
VERTEX
  5
542
  8
PROFILE
 10
-2.000884828785634
 20
-0.5166456420898443
 30
0.0
  0
VERTEX
  5
543
  8
PROFILE
 10
-1.993421002846202
 20
-0.5163100544172992
 30
0.0
  0
VERTEX
  5
544
  8
PROFILE
 10
-1.98617278259338
 20
-0.5153250731123424
 30
0.0
  0
VERTEX
  5
545
  8
PROFILE
 10
-1.979176861835448
 20
-0.5137233707439921
 30
0.0
  0
VERTEX
  5
546
  8
PROFILE
 10
-1.972469934380689
 20
-0.5115376198812664
 30
0.0
  0
VERTEX
  5
547
  8
PROFILE
 10
-1.966088694037385
 20
-0.5088004930931834
 30
0.0
  0
VERTEX
  5
548
  8
PROFILE
 10
-1.960069834613816
 20
-0.5055446629487609
 30
0.0
  0
VERTEX
  5
549
  8
PROFILE
 10
-1.954450049918266
 20
-0.5018028020170171
 30
0.0
  0
VERTEX
  5
54A
  8
PROFILE
 10
-1.949266033759016
 20
-0.4976075828669701
 30
0.0
  0
VERTEX
  5
54B
  8
PROFILE
 10
-1.944554479944348
 20
-0.4929916780676379
 30
0.0
  0
VERTEX
  5
54C
  8
PROFILE
 10
-1.940352082282543
 20
-0.4879877601880386
 30
0.0
  0
VERTEX
  5
54D
  8
PROFILE
 10
-1.936695534581884
 20
-0.4826285017971902
 30
0.0
  0
VERTEX
  5
54E
  8
PROFILE
 10
-1.933621530650652
 20
-0.4769465754641108
 30
0.0
  0
VERTEX
  5
54F
  8
PROFILE
 10
-1.93116676429713
 20
-0.4709746537578184
 30
0.0
  0
VERTEX
  5
550
  8
PROFILE
 10
-1.929367929329598
 20
-0.4647454092473312
 30
0.0
  0
VERTEX
  5
551
  8
PROFILE
 10
-1.928261719556339
 20
-0.4582915145016672
 30
0.0
  0
VERTEX
  5
552
  8
PROFILE
 10
-1.927884828785634
 20
-0.4516456420898443
 30
0.0
  0
VERTEX
  5
553
  8
PROFILE
 10
-1.927884828785634
 20
-0.4506456420898443
 30
0.0
  0
VERTEX
  5
554
  8
PROFILE
 10
-1.928369208295495
 20
-0.44164611654274
 30
0.0
  0
VERTEX
  5
555
  8
PROFILE
 10
-1.929784844248012
 20
-0.4329690040653842
 30
0.0
  0
VERTEX
  5
556
  8
PROFILE
 10
-1.932075482777593
 20
-0.4246780303439176
 30
0.0
  0
VERTEX
  5
557
  8
PROFILE
 10
-1.935184870018642
 20
-0.4168369210644807
 30
0.0
  0
VERTEX
  5
558
  8
PROFILE
 10
-1.939056752105565
 20
-0.4095094019132143
 30
0.0
  0
VERTEX
  5
559
  8
PROFILE
 10
-1.943634875172768
 20
-0.4027591985762591
 30
0.0
  0
VERTEX
  5
55A
  8
PROFILE
 10
-1.948862985354656
 20
-0.3966500367397555
 30
0.0
  0
VERTEX
  5
55B
  8
PROFILE
 10
-1.954684828785634
 20
-0.3912456420898444
 30
0.0
  0
VERTEX
  5
55C
  8
PROFILE
 10
-2.048684828785635
 20
-0.3162456420898443
 30
0.0
  0
VERTEX
  5
55D
  8
PROFILE
 10
-2.054182109212079
 20
-0.3114180690517016
 30
0.0
  0
VERTEX
  5
55E
  8
PROFILE
 10
-2.059111444922451
 20
-0.3058808936901106
 30
0.0
  0
VERTEX
  5
55F
  8
PROFILE
 10
-2.063425053928153
 20
-0.2996999990293875
 30
0.0
  0
VERTEX
  5
560
  8
PROFILE
 10
-2.067075154240583
 20
-0.292941268093848
 30
0.0
  0
VERTEX
  5
561
  8
PROFILE
 10
-2.070013963871145
 20
-0.285670583907808
 30
0.0
  0
VERTEX
  5
562
  8
PROFILE
 10
-2.07219370083124
 20
-0.2779538294955834
 30
0.0
  0
VERTEX
  5
563
  8
PROFILE
 10
-2.073566583132269
 20
-0.2698568878814903
 30
0.0
  0
VERTEX
  5
564
  8
PROFILE
 10
-2.074084828785634
 20
-0.2614456420898443
 30
0.0
  0
VERTEX
  5
565
  8
PROFILE
 10
-2.074084828785634
 20
-0.2592456420898444
 30
0.0
  0
VERTEX
  5
566
  8
PROFILE
 10
-2.073730654718918
 20
-0.253192737157413
 30
0.0
  0
VERTEX
  5
567
  8
PROFILE
 10
-2.072691120603225
 20
-0.2473143866075639
 30
0.0
  0
VERTEX
  5
568
  8
PROFILE
 10
-2.071000708565243
 20
-0.241640054642099
 30
0.0
  0
VERTEX
  5
569
  8
PROFILE
 10
-2.068693900731658
 20
-0.2361992054628201
 30
0.0
  0
VERTEX
  5
56A
  8
PROFILE
 10
-2.065805179229158
 20
-0.231021303271529
 30
0.0
  0
VERTEX
  5
56B
  8
PROFILE
 10
-2.062369026184429
 20
-0.2261358122700274
 30
0.0
  0
VERTEX
  5
56C
  8
PROFILE
 10
-2.058419923724158
 20
-0.2215721966601173
 30
0.0
  0
VERTEX
  5
56D
  8
PROFILE
 10
-2.053992353975032
 20
-0.2173599206436006
 30
0.0
  0
VERTEX
  5
56E
  8
PROFILE
 10
-2.049120799063736
 20
-0.2135284484222789
 30
0.0
  0
VERTEX
  5
56F
  8
PROFILE
 10
-2.04383974111696
 20
-0.2101072441979542
 30
0.0
  0
VERTEX
  5
570
  8
PROFILE
 10
-2.038183662261387
 20
-0.2071257721724283
 30
0.0
  0
VERTEX
  5
571
  8
PROFILE
 10
-2.032187044623706
 20
-0.2046134965475029
 30
0.0
  0
VERTEX
  5
572
  8
PROFILE
 10
-2.025884370330604
 20
-0.20259988152498
 30
0.0
  0
VERTEX
  5
573
  8
PROFILE
 10
-2.019310121508767
 20
-0.2011143913066614
 30
0.0
  0
VERTEX
  5
574
  8
PROFILE
 10
-2.012498780284881
 20
-0.2001864900943489
 30
0.0
  0
VERTEX
  5
575
  8
PROFILE
 10
-2.005484828785634
 20
-0.1998456420898443
 30
0.0
  0
VERTEX
  5
576
  8
PROFILE
 10
-2.011803519786413
 20
-0.2001575779256373
 30
0.0
  0
VERTEX
  5
577
  8
PROFILE
 10
-2.017939684329214
 20
-0.2010006192101382
 30
0.0
  0
VERTEX
  5
578
  8
PROFILE
 10
-2.023862258340723
 20
-0.2023481166090297
 30
0.0
  0
VERTEX
  5
579
  8
PROFILE
 10
-2.029540177747629
 20
-0.2041734207879947
 30
0.0
  0
VERTEX
  5
57A
  8
PROFILE
 10
-2.034942378476618
 20
-0.2064498824127159
 30
0.0
  0
VERTEX
  5
57B
  8
PROFILE
 10
-2.040037796454379
 20
-0.2091508521488762
 30
0.0
  0
VERTEX
  5
57C
  8
PROFILE
 10
-2.044795367607598
 20
-0.2122496806621584
 30
0.0
  0
VERTEX
  5
57D
  8
PROFILE
 10
-2.049184027862963
 20
-0.2157197186182453
 30
0.0
  0
VERTEX
  5
57E
  8
PROFILE
 10
-2.053172713147162
 20
-0.2195343166828196
 30
0.0
  0
VERTEX
  5
57F
  8
PROFILE
 10
-2.056730359386881
 20
-0.2236668255215642
 30
0.0
  0
VERTEX
  5
580
  8
PROFILE
 10
-2.059825902508809
 20
-0.2280905958001618
 30
0.0
  0
VERTEX
  5
581
  8
PROFILE
 10
-2.062428278439632
 20
-0.2327789781842954
 30
0.0
  0
VERTEX
  5
582
  8
PROFILE
 10
-2.064506423106039
 20
-0.2377053233396476
 30
0.0
  0
VERTEX
  5
583
  8
PROFILE
 10
-2.066029272434717
 20
-0.2428429819319013
 30
0.0
  0
VERTEX
  5
584
  8
PROFILE
 10
-2.066965762352353
 20
-0.2481653046267393
 30
0.0
  0
VERTEX
  5
585
  8
PROFILE
 10
-2.067284828785634
 20
-0.2536456420898444
 30
0.0
  0
VERTEX
  5
586
  8
PROFILE
 10
-2.067253654162085
 20
-0.2544568004049159
 30
0.0
  0
VERTEX
  5
587
  8
PROFILE
 10
-2.067084828785634
 20
-0.2536456420898444
 30
0.0
  0
VERTEX
  5
588
  8
PROFILE
 10
-2.066424344283594
 20
-0.2625408718067166
 30
0.0
  0
VERTEX
  5
589
  8
PROFILE
 10
-2.064942942883336
 20
-0.2709040148845006
 30
0.0
  0
VERTEX
  5
58A
  8
PROFILE
 10
-2.06268829510569
 20
-0.2787089389689014
 30
0.0
  0
VERTEX
  5
58B
  8
PROFILE
 10
-2.059708071471484
 20
-0.2859295117056244
 30
0.0
  0
VERTEX
  5
58C
  8
PROFILE
 10
-2.056049942501547
 20
-0.2925396007403749
 30
0.0
  0
VERTEX
  5
58D
  8
PROFILE
 10
-2.051761578716707
 20
-0.2985130737188583
 30
0.0
  0
VERTEX
  5
58E
  8
PROFILE
 10
-2.046890650637794
 20
-0.3038237982867796
 30
0.0
  0
VERTEX
  5
58F
  8
PROFILE
 10
-2.041484828785634
 20
-0.3084456420898444
 30
0.0
  0
VERTEX
  5
590
  8
PROFILE
 10
-2.000084828785635
 20
-0.3408456420898444
 30
0.0
  0
VERTEX
  5
591
  8
PROFILE
 10
-1.969884828785634
 20
-0.3174456420898444
 30
0.0
  0
VERTEX
  5
592
  8
PROFILE
 10
-1.963907871709882
 20
-0.3120779217901247
 30
0.0
  0
VERTEX
  5
593
  8
PROFILE
 10
-1.958527967052635
 20
-0.305973966383299
 30
0.0
  0
VERTEX
  5
594
  8
PROFILE
 10
-1.953804011044032
 20
-0.2992079963228802
 30
0.0
  0
VERTEX
  5
595
  8
PROFILE
 10
-1.949794899914215
 20
-0.2918542320623813
 30
0.0
  0
VERTEX
  5
596
  8
PROFILE
 10
-1.946559529893326
 20
-0.2839868940553153
 30
0.0
  0
VERTEX
  5
597
  8
PROFILE
 10
-1.944156797211505
 20
-0.2756802027551952
 30
0.0
  0
VERTEX
  5
598
  8
PROFILE
 10
-1.942645598098894
 20
-0.2670083786155338
 30
0.0
  0
VERTEX
  5
599
  8
PROFILE
 10
-1.942084828785634
 20
-0.2580456420898444
 30
0.0
  0
VERTEX
  5
59A
  8
PROFILE
 10
-1.94236878758548
 20
-0.2520950301764892
 30
0.0
  0
VERTEX
  5
59B
  8
PROFILE
 10
-1.943202233305059
 20
-0.24631631211191
 30
0.0
  0
VERTEX
  5
59C
  8
PROFILE
 10
-1.944557519924432
 20
-0.2407387424117506
 30
0.0
  0
VERTEX
  5
59D
  8
PROFILE
 10
-1.946407001423662
 20
-0.235391575591655
 30
0.0
  0
VERTEX
  5
59E
  8
PROFILE
 10
-1.948723031782809
 20
-0.230304066167267
 30
0.0
  0
VERTEX
  5
59F
  8
PROFILE
 10
-1.951477964981936
 20
-0.2255054686542304
 30
0.0
  0
VERTEX
  5
5A0
  8
PROFILE
 10
-1.954644155001104
 20
-0.2210250375681892
 30
0.0
  0
VERTEX
  5
5A1
  8
PROFILE
 10
-1.958193955820374
 20
-0.2168920274247871
 30
0.0
  0
VERTEX
  5
5A2
  8
PROFILE
 10
-1.962099721419809
 20
-0.2131356927396681
 30
0.0
  0
VERTEX
  5
5A3
  8
PROFILE
 10
-1.96633380577947
 20
-0.209785288028476
 30
0.0
  0
VERTEX
  5
5A4
  8
PROFILE
 10
-1.970868562879418
 20
-0.2068700678068546
 30
0.0
  0
VERTEX
  5
5A5
  8
PROFILE
 10
-1.975676346699716
 20
-0.2044192865904479
 30
0.0
  0
VERTEX
  5
5A6
  8
PROFILE
 10
-1.980729511220426
 20
-0.2024621988948996
 30
0.0
  0
VERTEX
  5
5A7
  8
PROFILE
 10
-1.986000410421607
 20
-0.2010280592358537
 30
0.0
  0
VERTEX
  5
5A8
  8
PROFILE
 10
-1.991461398283323
 20
-0.200146122128954
 30
0.0
  0
VERTEX
  5
5A9
  8
PROFILE
 10
-1.997084828785634
 20
-0.1998456420898443
 30
0.0
  0
VERTEX
  5
5AA
  8
PROFILE
 10
-2.003884828785634
 20
-0.1998456420898443
 30
0.0
  0
VERTEX
  5
5AB
  8
PROFILE
 10
-1.997084828785634
 20
-0.1998456420898443
 30
0.0
  0
VERTEX
  5
5AC
  8
PROFILE
 10
-1.990070877286388
 20
-0.200146122128954
 30
0.0
  0
VERTEX
  5
5AD
  8
PROFILE
 10
-1.983259536062502
 20
-0.2010280592358537
 30
0.0
  0
VERTEX
  5
5AE
  8
PROFILE
 10
-1.976685287240665
 20
-0.2024621988948996
 30
0.0
  0
VERTEX
  5
5AF
  8
PROFILE
 10
-1.970382612947562
 20
-0.2044192865904479
 30
0.0
  0
VERTEX
  5
5B0
  8
PROFILE
 10
-1.964385995309882
 20
-0.2068700678068546
 30
0.0
  0
VERTEX
  5
5B1
  8
PROFILE
 10
-1.958729916454309
 20
-0.209785288028476
 30
0.0
  0
VERTEX
  5
5B2
  8
PROFILE
 10
-1.953448858507532
 20
-0.2131356927396681
 30
0.0
  0
VERTEX
  5
5B3
  8
PROFILE
 10
-1.948577303596237
 20
-0.2168920274247871
 30
0.0
  0
VERTEX
  5
5B4
  8
PROFILE
 10
-1.944149733847111
 20
-0.2210250375681892
 30
0.0
  0
VERTEX
  5
5B5
  8
PROFILE
 10
-1.940200631386839
 20
-0.2255054686542304
 30
0.0
  0
VERTEX
  5
5B6
  8
PROFILE
 10
-1.936764478342111
 20
-0.230304066167267
 30
0.0
  0
VERTEX
  5
5B7
  8
PROFILE
 10
-1.93387575683961
 20
-0.235391575591655
 30
0.0
  0
VERTEX
  5
5B8
  8
PROFILE
 10
-1.931568949006026
 20
-0.2407387424117506
 30
0.0
  0
VERTEX
  5
5B9
  8
PROFILE
 10
-1.929878536968044
 20
-0.24631631211191
 30
0.0
  0
VERTEX
  5
5BA
  8
PROFILE
 10
-1.928839002852351
 20
-0.2520950301764892
 30
0.0
  0
VERTEX
  5
5BB
  8
PROFILE
 10
-1.928484828785634
 20
-0.2580456420898444
 30
0.0
  0
VERTEX
  5
5BC
  8
PROFILE
 10
-1.928484828785634
 20
-0.2592456420898444
 30
0.0
  0
VERTEX
  5
5BD
  8
PROFILE
 10
-1.929040583652176
 20
-0.2673143605562287
 30
0.0
  0
VERTEX
  5
5BE
  8
PROFILE
 10
-1.930670631185206
 20
-0.2751288563356027
 30
0.0
  0
VERTEX
  5
5BF
  8
PROFILE
 10
-1.933319145784832
 20
-0.2826421381334165
 30
0.0
  0
VERTEX
  5
5C0
  8
PROFILE
 10
-1.93693030185116
 20
-0.2898072146551205
 30
0.0
  0
VERTEX
  5
5C1
  8
PROFILE
 10
-1.941448273784297
 20
-0.296577094606165
 30
0.0
  0
VERTEX
  5
5C2
  8
PROFILE
 10
-1.946817235984351
 20
-0.3029047866920003
 30
0.0
  0
VERTEX
  5
5C3
  8
PROFILE
 10
-1.952981362851427
 20
-0.3087432996180766
 30
0.0
  0
VERTEX
  5
5C4
  8
PROFILE
 10
-1.959884828785634
 20
-0.3140456420898443
 30
0.0
  0
VERTEX
  5
5C5
  8
PROFILE
 10
-1.999084828785634
 20
-0.3408456420898444
 30
0.0
  0
VERTEX
  5
5C6
  8
PROFILE
 10
-1.955284828785634
 20
-0.3744456420898443
 30
0.0
  0
VERTEX
  5
5C7
  8
PROFILE
 10
-1.951344914081752
 20
-0.3770884966496527
 30
0.0
  0
VERTEX
  5
5C8
  8
PROFILE
 10
-1.947573441279315
 20
-0.3800176477816035
 30
0.0
  0
VERTEX
  5
5C9
  8
PROFILE
 10
-1.943982241819553
 20
-0.3832201646613861
 30
0.0
  0
VERTEX
  5
5CA
  8
PROFILE
 10
-1.940583147143696
 20
-0.3866831164646896
 30
0.0
  0
VERTEX
  5
5CB
  8
PROFILE
 10
-1.937387988692973
 20
-0.3903935723672032
 30
0.0
  0
VERTEX
  5
5CC
  8
PROFILE
 10
-1.934408597908615
 20
-0.3943386015446162
 30
0.0
  0
VERTEX
  5
5CD
  8
PROFILE
 10
-1.931656806231851
 20
-0.3985052731726177
 30
0.0
  0
VERTEX
  5
5CE
  8
PROFILE
 10
-1.929144445103911
 20
-0.4028806564268973
 30
0.0
  0
VERTEX
  5
5CF
  8
PROFILE
 10
-1.926883345966025
 20
-0.4074518204831439
 30
0.0
  0
VERTEX
  5
5D0
  8
PROFILE
 10
-1.924885340259423
 20
-0.4122058345170468
 30
0.0
  0
VERTEX
  5
5D1
  8
PROFILE
 10
-1.923162259425334
 20
-0.4171297677042953
 30
0.0
  0
VERTEX
  5
5D2
  8
PROFILE
 10
-1.921725934904988
 20
-0.4222106892205786
 30
0.0
  0
VERTEX
  5
5D3
  8
PROFILE
 10
-1.920588198139615
 20
-0.4274356682415859
 30
0.0
  0
VERTEX
  5
5D4
  8
PROFILE
 10
-1.919760880570446
 20
-0.4327917739430065
 30
0.0
  0
VERTEX
  5
5D5
  8
PROFILE
 10
-1.919255813638709
 20
-0.4382660755005295
 30
0.0
  0
VERTEX
  5
5D6
  8
PROFILE
 10
-1.919084828785634
 20
-0.4438456420898443
 30
0.0
  0
VERTEX
  5
5D7
  8
PROFILE
 10
-1.919084828785634
 20
-0.4494456420898443
 30
0.0
  0
VERTEX
  5
5D8
  8
PROFILE
 10
-1.91948546883778
 20
-0.4563164517217596
 30
0.0
  0
VERTEX
  5
5D9
  8
PROFILE
 10
-1.920661384980313
 20
-0.4629887859818923
 30
0.0
  0
VERTEX
  5
5DA
  8
PROFILE
 10
-1.922573571192375
 20
-0.4694288664604268
 30
0.0
  0
VERTEX
  5
5DB
  8
PROFILE
 10
-1.925183021453106
 20
-0.4756029147475475
 30
0.0
  0
VERTEX
  5
5DC
  8
PROFILE
 10
-1.928450729741648
 20
-0.4814771524334387
 30
0.0
  0
VERTEX
  5
5DD
  8
PROFILE
 10
-1.932337690037143
 20
-0.4870178011082851
 30
0.0
  0
VERTEX
  5
5DE
  8
PROFILE
 10
-1.936804896318733
 20
-0.4921910823622709
 30
0.0
  0
VERTEX
  5
5DF
  8
PROFILE
 10
-1.941813342565558
 20
-0.4969632177855805
 30
0.0
  0
VERTEX
  5
5E0
  8
PROFILE
 10
-1.947324022756761
 20
-0.5013004289683982
 30
0.0
  0
VERTEX
  5
5E1
  8
PROFILE
 10
-1.953297930871482
 20
-0.5051689375009087
 30
0.0
  0
VERTEX
  5
5E2
  8
PROFILE
 10
-1.959696060888864
 20
-0.5085349649732963
 30
0.0
  0
VERTEX
  5
5E3
  8
PROFILE
 10
-1.966479406788049
 20
-0.5113647329757454
 30
0.0
  0
VERTEX
  5
5E4
  8
PROFILE
 10
-1.973608962548176
 20
-0.5136244630984403
 30
0.0
  0
VERTEX
  5
5E5
  8
PROFILE
 10
-1.981045722148389
 20
-0.5152803769315655
 30
0.0
  0
VERTEX
  5
5E6
  8
PROFILE
 10
-1.988750679567827
 20
-0.5162986960653053
 30
0.0
  0
VERTEX
  5
5E7
  8
PROFILE
 10
-1.996684828785634
 20
-0.5166456420898443
 30
0.0
  0
VERTEX
  5
5E8
  8
PROFILE
 10
-2.002284828785634
 20
-0.5166456420898443
 30
0.0
  0
VERTEX
  5
5E9
  8
PROFILE
 10
-1.995414019153719
 20
-0.5163276082340169
 30
0.0
  0
VERTEX
  5
5EA
  8
PROFILE
 10
-1.988741684893586
 20
-0.5153941490280887
 30
0.0
  0
VERTEX
  5
5EB
  8
PROFILE
 10
-1.982301604415052
 20
-0.5138762280143906
 30
0.0
  0
VERTEX
  5
5EC
  8
PROFILE
 10
-1.976127556127931
 20
-0.5118048087352537
 30
0.0
  0
VERTEX
  5
5ED
  8
PROFILE
 10
-1.97025331844204
 20
-0.5092108547330088
 30
0.0
  0
VERTEX
  5
5EE
  8
PROFILE
 10
-1.964712669767193
 20
-0.5061253295499869
 30
0.0
  0
VERTEX
  5
5EF
  8
PROFILE
 10
-1.959539388513208
 20
-0.5025791967285189
 30
0.0
  0
VERTEX
  5
5F0
  8
PROFILE
 10
-1.954767253089898
 20
-0.4986034198109358
 30
0.0
  0
VERTEX
  5
5F1
  8
PROFILE
 10
-1.95043004190708
 20
-0.4942289623395687
 30
0.0
  0
VERTEX
  5
5F2
  8
PROFILE
 10
-1.94656153337457
 20
-0.4894867878567484
 30
0.0
  0
VERTEX
  5
5F3
  8
PROFILE
 10
-1.943195505902182
 20
-0.4844078599048059
 30
0.0
  0
VERTEX
  5
5F4
  8
PROFILE
 10
-1.940365737899733
 20
-0.4790231420260722
 30
0.0
  0
VERTEX
  5
5F5
  8
PROFILE
 10
-1.938106007777038
 20
-0.4733635977628783
 30
0.0
  0
VERTEX
  5
5F6
  8
PROFILE
 10
-1.936450093943913
 20
-0.467460190657555
 30
0.0
  0
VERTEX
  5
5F7
  8
PROFILE
 10
-1.935431774810173
 20
-0.4613438842524333
 30
0.0
  0
VERTEX
  5
5F8
  8
PROFILE
 10
-1.935084828785634
 20
-0.4550456420898443
 30
0.0
  0
VERTEX
  5
5F9
  8
PROFILE
 10
-1.935561585819169
 20
-0.4464057344324512
 30
0.0
  0
VERTEX
  5
5FA
  8
PROFILE
 10
-1.93695335290061
 20
-0.4380968991054537
 30
0.0
  0
VERTEX
  5
5FB
  8
PROFILE
 10
-1.939202374001214
 20
-0.4301878724661388
 30
0.0
  0
VERTEX
  5
5FC
  8
PROFILE
 10
-1.942250893092236
 20
-0.4227473908717934
 30
0.0
  0
VERTEX
  5
5FD
  8
PROFILE
 10
-1.946041154144934
 20
-0.4158441906797043
 30
0.0
  0
VERTEX
  5
5FE
  8
PROFILE
 10
-1.950515401130562
 20
-0.4095470082471585
 30
0.0
  0
VERTEX
  5
5FF
  8
PROFILE
 10
-1.955615878020377
 20
-0.4039245799314429
 30
0.0
  0
VERTEX
  5
600
  8
PROFILE
 10
-1.961284828785634
 20
-0.3990456420898443
 30
0.0
  0
VERTEX
  5
601
  8
PROFILE
 10
-2.018284828785634
 20
-0.3532456420898443
 30
0.0
  0
VERTEX
  5
602
  8
PROFILE
 10
-2.040684828785635
 20
-0.3744456420898443
 30
0.0
  0
VERTEX
  5
603
  8
PROFILE
 10
-2.046405518926613
 20
-0.3799163847296377
 30
0.0
  0
VERTEX
  5
604
  8
PROFILE
 10
-2.0515753406315
 20
-0.3860817396482368
 30
0.0
  0
VERTEX
  5
605
  8
PROFILE
 10
-2.056141772383914
 20
-0.3929128660434112
 30
0.0
  0
VERTEX
  5
606
  8
PROFILE
 10
-2.060052292667478
 20
-0.4003809231129303
 30
0.0
  0
VERTEX
  5
607
  8
PROFILE
 10
-2.063254379965812
 20
-0.4084570700545636
 30
0.0
  0
VERTEX
  5
608
  8
PROFILE
 10
-2.065695512762535
 20
-0.4171124660660808
 30
0.0
  0
VERTEX
  5
609
  8
PROFILE
 10
-2.067323169541269
 20
-0.4263182703452512
 30
0.0
  0
VERTEX
  5
60A
  8
PROFILE
 10
-2.068084828785634
 20
-0.4360456420898443
 30
0.0
  0
VERTEX
  5
60B
  8
PROFILE
 10
-2.068084828785634
 20
-0.4382456420898443
 30
0.0
  0
VERTEX
  5
60C
  8
PROFILE
 10
-2.067753371422905
 20
-0.4462615866604122
 30
0.0
  0
VERTEX
  5
60D
  8
PROFILE
 10
-2.066780512964779
 20
-0.454045976630567
 30
0.0
  0
VERTEX
  5
60E
  8
PROFILE
 10
-2.065198523856346
 20
-0.4615594038555239
 30
0.0
  0
VERTEX
  5
60F
  8
PROFILE
 10
-2.063039674542701
 20
-0.4687624601904981
 30
0.0
  0
VERTEX
  5
610
  8
PROFILE
 10
-2.060336235468932
 20
-0.4756157374907046
 30
0.0
  0
VERTEX
  5
611
  8
PROFILE
 10
-2.057120477080133
 20
-0.4820798276113586
 30
0.0
  0
VERTEX
  5
612
  8
PROFILE
 10
-2.053424669821395
 20
-0.4881153224076753
 30
0.0
  0
VERTEX
  5
613
  8
PROFILE
 10
-2.049281084137811
 20
-0.4936828137348698
 30
0.0
  0
VERTEX
  5
614
  8
PROFILE
 10
-2.04472199047447
 20
-0.4987428934481573
 30
0.0
  0
VERTEX
  5
615
  8
PROFILE
 10
-2.039779659276467
 20
-0.5032561534027529
 30
0.0
  0
VERTEX
  5
616
  8
PROFILE
 10
-2.03448636098889
 20
-0.5071831854538718
 30
0.0
  0
VERTEX
  5
617
  8
PROFILE
 10
-2.028874366056833
 20
-0.5104845814567289
 30
0.0
  0
VERTEX
  5
618
  8
PROFILE
 10
-2.022975944925387
 20
-0.5131209332665396
 30
0.0
  0
VERTEX
  5
619
  8
PROFILE
 10
-2.016823368039645
 20
-0.5150528327385191
 30
0.0
  0
VERTEX
  5
61A
  8
PROFILE
 10
-2.010448905844696
 20
-0.5162408717278822
 30
0.0
  0
VERTEX
  5
61B
  8
PROFILE
 10
-2.003884828785634
 20
-0.5166456420898443
 30
0.0
  0
VERTEX
  5
61C
  8
PROFILE
 10
-2.002684828785634
 20
-0.5166456420898443
 30
0.0
  0
VERTEX
  5
61D
  8
PROFILE
 10
-2.003884828785634
 20
-0.5166456420898443
 30
0.0
  0
VERTEX
  5
61E
  8
PROFILE
 10
-2.012146159414485
 20
-0.5162646210093238
 30
0.0
  0
VERTEX
  5
61F
  8
PROFILE
 10
-2.020168847036787
 20
-0.5151462883892345
 30
0.0
  0
VERTEX
  5
620
  8
PROFILE
 10
-2.027912277135977
 20
-0.5133277401617845
 30
0.0
  0
VERTEX
  5
621
  8
PROFILE
 10
-2.035335835195492
 20
-0.5108460722591821
 30
0.0
  0
VERTEX
  5
622
  8
PROFILE
 10
-2.042398906698766
 20
-0.5077383806136354
 30
0.0
  0
VERTEX
  5
623
  8
PROFILE
 10
-2.049060877129236
 20
-0.5040417611573527
 30
0.0
  0
VERTEX
  5
624
  8
PROFILE
 10
-2.055281131970338
 20
-0.4997933098225419
 30
0.0
  0
VERTEX
  5
625
  8
PROFILE
 10
-2.061019056705508
 20
-0.4950301225414117
 30
0.0
  0
VERTEX
  5
626
  8
PROFILE
 10
-2.066234036818182
 20
-0.4897892952461699
 30
0.0
  0
VERTEX
  5
627
  8
PROFILE
 10
-2.070885457791796
 20
-0.4841079238690249
 30
0.0
  0
VERTEX
  5
628
  8
PROFILE
 10
-2.074932705109785
 20
-0.4780231043421847
 30
0.0
  0
VERTEX
  5
629
  8
PROFILE
 10
-2.078335164255587
 20
-0.4715719325978577
 30
0.0
  0
VERTEX
  5
62A
  8
PROFILE
 10
-2.081052220712637
 20
-0.4647915045682519
 30
0.0
  0
VERTEX
  5
62B
  8
PROFILE
 10
-2.083043259964371
 20
-0.4577189161855756
 30
0.0
  0
VERTEX
  5
62C
  8
PROFILE
 10
-2.084267667494224
 20
-0.450391263382037
 30
0.0
  0
VERTEX
  5
62D
  8
PROFILE
 10
-2.084684828785635
 20
-0.4428456420898443
 30
0.0
  0
VERTEX
  5
62E
  8
PROFILE
 10
-2.084296259741049
 20
-0.4356253749995903
 30
0.0
  0
VERTEX
  5
62F
  8
PROFILE
 10
-2.083159734918484
 20
-0.428652205569618
 30
0.0
  0
VERTEX
  5
630
  8
PROFILE
 10
-2.081319027784728
 20
-0.4219733374112514
 30
0.0
  0
VERTEX
  5
631
  8
PROFILE
 10
-2.078817911806568
 20
-0.4156359741358147
 30
0.0
  0
VERTEX
  5
632
  8
PROFILE
 10
-2.075700160450791
 20
-0.4096873193546315
 30
0.0
  0
VERTEX
  5
633
  8
PROFILE
 10
-2.072009547184185
 20
-0.4041745766790261
 30
0.0
  0
VERTEX
  5
634
  8
PROFILE
 10
-2.067789845473536
 20
-0.3991449497203224
 30
0.0
  0
VERTEX
  5
635
  8
PROFILE
 10
-2.063084828785634
 20
-0.3946456420898443
 30
0.0
  0
VERTEX
  5
636
  8
PROFILE
 10
-2.018284828785634
 20
-0.3532456420898443
 30
0.0
  0
VERTEX
  5
637
  8
PROFILE
 10
-2.054084828785634
 20
-0.3240456420898443
 30
0.0
  0
VERTEX
  5
638
  8
PROFILE
 10
-2.05980922792504
 20
-0.3188700939358519
 30
0.0
  0
VERTEX
  5
639
  8
PROFILE
 10
-2.064998404163282
 20
-0.3129464594450543
 30
0.0
  0
VERTEX
  5
63A
  8
PROFILE
 10
-2.069595054788171
 20
-0.3063095743792814
 30
0.0
  0
VERTEX
  5
63B
  8
PROFILE
 10
-2.073541877087515
 20
-0.2989942745003635
 30
0.0
  0
VERTEX
  5
63C
  8
PROFILE
 10
-2.076781568349125
 20
-0.2910353955701308
 30
0.0
  0
VERTEX
  5
63D
  8
PROFILE
 10
-2.079256825860808
 20
-0.2824677733504132
 30
0.0
  0
VERTEX
  5
63E
  8
PROFILE
 10
-2.080910346910375
 20
-0.273326243603041
 30
0.0
  0
VERTEX
  5
63F
  8
PROFILE
 10
-2.081684828785634
 20
-0.2636456420898444
 30
0.0
  0
VERTEX
  5
640
  8
PROFILE
 10
-2.081853660616674
 20
-0.2645080837895784
 30
0.0
  0
VERTEX
  5
641
  8
PROFILE
 10
-2.081884828785634
 20
-0.2636456420898444
 30
0.0
  0
VERTEX
  5
642
  8
PROFILE
 10
-2.081485221310942
 20
-0.2571224627071629
 30
0.0
  0
VERTEX
  5
643
  8
PROFILE
 10
-2.080312335880117
 20
-0.2507877167875726
 30
0.0
  0
VERTEX
  5
644
  8
PROFILE
 10
-2.078405077983035
 20
-0.2446734737142021
 30
0.0
  0
VERTEX
  5
645
  8
PROFILE
 10
-2.075802353109574
 20
-0.2388118028701797
 30
0.0
  0
VERTEX
  5
646
  8
PROFILE
 10
-2.072543066749611
 20
-0.2332347736386341
 30
0.0
  0
VERTEX
  5
647
  8
PROFILE
 10
-2.068666124393022
 20
-0.2279744554026937
 30
0.0
  0
VERTEX
  5
648
  8
PROFILE
 10
-2.064210431529683
 20
-0.223062917545487
 30
0.0
  0
VERTEX
  5
649
  8
PROFILE
 10
-2.059214893649473
 20
-0.2185322294501424
 30
0.0
  0
VERTEX
  5
64A
  8
PROFILE
 10
-2.053718416242268
 20
-0.2144144604997886
 30
0.0
  0
VERTEX
  5
64B
  8
PROFILE
 10
-2.047759904797946
 20
-0.210741680077554
 30
0.0
  0
VERTEX
  5
64C
  8
PROFILE
 10
-2.041378264806381
 20
-0.207545957566567
 30
0.0
  0
VERTEX
  5
64D
  8
PROFILE
 10
-2.034612401757453
 20
-0.2048593623499561
 30
0.0
  0
VERTEX
  5
64E
  8
PROFILE
 10
-2.027501221141038
 20
-0.20271396381085
 30
0.0
  0
VERTEX
  5
64F
  8
PROFILE
 10
-2.020083628447011
 20
-0.201141831332377
 30
0.0
  0
VERTEX
  5
650
  8
PROFILE
 10
-2.012398529165251
 20
-0.2001750342976656
 30
0.0
  0
VERTEX
  5
651
  8
PROFILE
 10
-2.004484828785634
 20
-0.1998456420898443
 30
0.0
  0
SEQEND
  5
E5D
  8
PROFILE
  0
POLYLINE
  5
132
  8
PROFILE
 66
     1
 10
0.0
 20
0.0
 30
0.0
  0
VERTEX
  5
652
  8
PROFILE
 10
-1.847484828785636
 20
-0.4942456420898443
 30
0.0
  0
VERTEX
  5
653
  8
PROFILE
 10
-1.841970068113215
 20
-0.4985948868158353
 30
0.0
  0
VERTEX
  5
654
  8
PROFILE
 10
-1.835456706477183
 20
-0.5025172363810964
 30
0.0
  0
VERTEX
  5
655
  8
PROFILE
 10
-1.828039010169691
 20
-0.5059655319765651
 30
0.0
  0
VERTEX
  5
656
  8
PROFILE
 10
-1.819811245482889
 20
-0.5088926147931794
 30
0.0
  0
VERTEX
  5
657
  8
PROFILE
 10
-1.810867678708931
 20
-0.5112513260218767
 30
0.0
  0
VERTEX
  5
658
  8
PROFILE
 10
-1.801302576139968
 20
-0.5129945068535949
 30
0.0
  0
VERTEX
  5
659
  8
PROFILE
 10
-1.791210204068153
 20
-0.5140749984792716
 30
0.0
  0
VERTEX
  5
65A
  8
PROFILE
 10
-1.780684828785636
 20
-0.5144456420898443
 30
0.0
  0
VERTEX
  5
65B
  8
PROFILE
 10
-1.772259907451263
 20
-0.5139365814050296
 30
0.0
  0
VERTEX
  5
65C
  8
PROFILE
 10
-1.764078354727529
 20
-0.512442440533203
 30
0.0
  0
VERTEX
  5
65D
  8
PROFILE
 10
-1.75618158937885
 20
-0.5100127812482901
 30
0.0
  0
VERTEX
  5
65E
  8
PROFILE
 10
-1.748611030169642
 20
-0.5066971653242169
 30
0.0
  0
VERTEX
  5
65F
  8
PROFILE
 10
-1.741408095864323
 20
-0.5025451545349093
 30
0.0
  0
VERTEX
  5
660
  8
PROFILE
 10
-1.734614205227309
 20
-0.4976063106542931
 30
0.0
  0
VERTEX
  5
661
  8
PROFILE
 10
-1.728270777023018
 20
-0.4919301954562941
 30
0.0
  0
VERTEX
  5
662
  8
PROFILE
 10
-1.722419230015864
 20
-0.4855663707148382
 30
0.0
  0
VERTEX
  5
663
  8
PROFILE
 10
-1.717100982970266
 20
-0.4785643982038512
 30
0.0
  0
VERTEX
  5
664
  8
PROFILE
 10
-1.71235745465064
 20
-0.470973839697259
 30
0.0
  0
VERTEX
  5
665
  8
PROFILE
 10
-1.708230063821403
 20
-0.4628442569689875
 30
0.0
  0
VERTEX
  5
666
  8
PROFILE
 10
-1.704760229246971
 20
-0.4542252117929624
 30
0.0
  0
VERTEX
  5
667
  8
PROFILE
 10
-1.701989369691762
 20
-0.4451662659431097
 30
0.0
  0
VERTEX
  5
668
  8
PROFILE
 10
-1.699958903920192
 20
-0.4357169811933552
 30
0.0
  0
VERTEX
  5
669
  8
PROFILE
 10
-1.698710250696678
 20
-0.4259269193176248
 30
0.0
  0
VERTEX
  5
66A
  8
PROFILE
 10
-1.698284828785636
 20
-0.4158456420898443
 30
0.0
  0
VERTEX
  5
66B
  8
PROFILE
 10
-1.698284828785636
 20
-0.4068456420898443
 30
0.0
  0
VERTEX
  5
66C
  8
PROFILE
 10
-1.698458671480579
 20
-0.4014026655998248
 30
0.0
  0
VERTEX
  5
66D
  8
PROFILE
 10
-1.698974804540255
 20
-0.3960282521924345
 30
0.0
  0
VERTEX
  5
66E
  8
PROFILE
 10
-1.699825135426932
 20
-0.390728564762572
 30
0.0
  0
VERTEX
  5
66F
  8
PROFILE
 10
-1.701001571602881
 20
-0.3855097662051356
 30
0.0
  0
VERTEX
  5
670
  8
PROFILE
 10
-1.702496020530369
 20
-0.3803780194150237
 30
0.0
  0
VERTEX
  5
671
  8
PROFILE
 10
-1.704300389671665
 20
-0.3753394872871352
 30
0.0
  0
VERTEX
  5
672
  8
PROFILE
 10
-1.706406586489039
 20
-0.3704003327163684
 30
0.0
  0
VERTEX
  5
673
  8
PROFILE
 10
-1.708806518444761
 20
-0.3655667185976216
 30
0.0
  0
VERTEX
  5
674
  8
PROFILE
 10
-1.71445521762032
 20
-0.3562407632957827
 30
0.0
  0
VERTEX
  5
675
  8
PROFILE
 10
-1.721181746896496
 20
-0.3474109245408065
 30
0.0
  0
VERTEX
  5
676
  8
PROFILE
 10
-1.728921365971439
 20
-0.3391265054918808
 30
0.0
  0
VERTEX
  5
677
  8
PROFILE
 10
-1.737609334543303
 20
-0.3314368093081937
 30
0.0
  0
VERTEX
  5
678
  8
PROFILE
 10
-1.74718091231024
 20
-0.3243911391489332
 30
0.0
  0
VERTEX
  5
679
  8
PROFILE
 10
-1.757571358970402
 20
-0.3180387981732874
 30
0.0
  0
VERTEX
  5
67A
  8
PROFILE
 10
-1.768715934221942
 20
-0.312429089540444
 30
0.0
  0
VERTEX
  5
67B
  8
PROFILE
 10
-1.780549897763012
 20
-0.3076113164095912
 30
0.0
  0
VERTEX
  5
67C
  8
PROFILE
 10
-1.793008509291763
 20
-0.3036347819399168
 30
0.0
  0
VERTEX
  5
67D
  8
PROFILE
 10
-1.80602702850635
 20
-0.3005487892906089
 30
0.0
  0
VERTEX
  5
67E
  8
PROFILE
 10
-1.819540715104923
 20
-0.2984026416208554
 30
0.0
  0
VERTEX
  5
67F
  8
PROFILE
 10
-1.833484828785636
 20
-0.2972456420898444
 30
0.0
  0
SEQEND
  5
E5E
  8
PROFILE
  0
POLYLINE
  5
133
  8
PROFILE
 66
     1
 10
0.0
 20
0.0
 30
0.0
  0
VERTEX
  5
680
  8
PROFILE
 10
-1.797684828785636
 20
-0.2200456420898443
 30
0.0
  0
VERTEX
  5
681
  8
PROFILE
 10
-1.707084828785636
 20
-0.2200456420898443
 30
0.0
  0
VERTEX
  5
682
  8
PROFILE
 10
-1.690284828785636
 20
-0.1986456420898444
 30
0.0
  0
VERTEX
  5
683
  8
PROFILE
 10
-1.704884828785636
 20
-0.2290456420898443
 30
0.0
  0
VERTEX
  5
684
  8
PROFILE
 10
-1.803284828785636
 20
-0.2290456420898443
 30
0.0
  0
VERTEX
  5
685
  8
PROFILE
 10
-1.830084828785636
 20
-0.2860456420898443
 30
0.0
  0
VERTEX
  5
686
  8
PROFILE
 10
-1.816350959205006
 20
-0.2871075773314087
 30
0.0
  0
VERTEX
  5
687
  8
PROFILE
 10
-1.802923112116272
 20
-0.2892257222455433
 30
0.0
  0
VERTEX
  5
688
  8
PROFILE
 10
-1.789881321830617
 20
-0.2923473337526525
 30
0.0
  0
VERTEX
  5
689
  8
PROFILE
 10
-1.777305622659224
 20
-0.2964196687731412
 30
0.0
  0
VERTEX
  5
68A
  8
PROFILE
 10
-1.765276048913276
 20
-0.3013899842274136
 30
0.0
  0
VERTEX
  5
68B
  8
PROFILE
 10
-1.753872634903957
 20
-0.3072055370358745
 30
0.0
  0
VERTEX
  5
68C
  8
PROFILE
 10
-1.743175414942449
 20
-0.3138135841189283
 30
0.0
  0
VERTEX
  5
68D
  8
PROFILE
 10
-1.733264423339936
 20
-0.3211613823969796
 30
0.0
  0
VERTEX
  5
68E
  8
PROFILE
 10
-1.724219694407602
 20
-0.3291961887904328
 30
0.0
  0
VERTEX
  5
68F
  8
PROFILE
 10
-1.716121262456628
 20
-0.3378652602196927
 30
0.0
  0
VERTEX
  5
690
  8
PROFILE
 10
-1.709049161798199
 20
-0.3471158536051637
 30
0.0
  0
VERTEX
  5
691
  8
PROFILE
 10
-1.705922996425934
 20
-0.3519427388191048
 30
0.0
  0
VERTEX
  5
692
  8
PROFILE
 10
-1.703083426743498
 20
-0.3568952258672503
 30
0.0
  0
VERTEX
  5
693
  8
PROFILE
 10
-1.70054045703979
 20
-0.3619667218646509
 30
0.0
  0
VERTEX
  5
694
  8
PROFILE
 10
-1.698304091603708
 20
-0.3671506339263571
 30
0.0
  0
VERTEX
  5
695
  8
PROFILE
 10
-1.69638433472415
 20
-0.3724403691674195
 30
0.0
  0
VERTEX
  5
696
  8
PROFILE
 10
-1.694791190690012
 20
-0.3778293347028887
 30
0.0
  0
VERTEX
  5
697
  8
PROFILE
 10
-1.693534663790194
 20
-0.3833109376478152
 30
0.0
  0
VERTEX
  5
698
  8
PROFILE
 10
-1.692624758313594
 20
-0.3888785851172496
 30
0.0
  0
VERTEX
  5
699
  8
PROFILE
 10
-1.692071478549108
 20
-0.3945256842262424
 30
0.0
  0
VERTEX
  5
69A
  8
PROFILE
 10
-1.691884828785636
 20
-0.4002456420898443
 30
0.0
  0
VERTEX
  5
69B
  8
PROFILE
 10
-1.691884828785636
 20
-0.4092456420898443
 30
0.0
  0
VERTEX
  5
69C
  8
PROFILE
 10
-1.692343293175205
 20
-0.4200017309779022
 30
0.0
  0
VERTEX
  5
69D
  8
PROFILE
 10
-1.693688929173361
 20
-0.4304471113970385
 30
0.0
  0
VERTEX
  5
69E
  8
PROFILE
 10
-1.695877101024277
 20
-0.4405289040509348
 30
0.0
  0
VERTEX
  5
69F
  8
PROFILE
 10
-1.698863172972124
 20
-0.4501942296432725
 30
0.0
  0
VERTEX
  5
6A0
  8
PROFILE
 10
-1.702602509261074
 20
-0.4593902088777333
 30
0.0
  0
VERTEX
  5
6A1
  8
PROFILE
 10
-1.7070504741353
 20
-0.4680639624579988
 30
0.0
  0
VERTEX
  5
6A2
  8
PROFILE
 10
-1.712162431838975
 20
-0.4761626110877503
 30
0.0
  0
VERTEX
  5
6A3
  8
PROFILE
 10
-1.71789374661627
 20
-0.4836332754706694
 30
0.0
  0
VERTEX
  5
6A4
  8
PROFILE
 10
-1.724199782711358
 20
-0.4904230763104378
 30
0.0
  0
VERTEX
  5
6A5
  8
PROFILE
 10
-1.73103590436841
 20
-0.496479134310737
 30
0.0
  0
VERTEX
  5
6A6
  8
PROFILE
 10
-1.7383574758316
 20
-0.5017485701752484
 30
0.0
  0
VERTEX
  5
6A7
  8
PROFILE
 10
-1.746119861345099
 20
-0.5061785046076538
 30
0.0
  0
VERTEX
  5
6A8
  8
PROFILE
 10
-1.75427842515308
 20
-0.5097160583116345
 30
0.0
  0
VERTEX
  5
6A9
  8
PROFILE
 10
-1.762788531499715
 20
-0.512308351990872
 30
0.0
  0
VERTEX
  5
6AA
  8
PROFILE
 10
-1.771605544629176
 20
-0.5139025063490481
 30
0.0
  0
VERTEX
  5
6AB
  8
PROFILE
 10
-1.780684828785636
 20
-0.5144456420898443
 30
0.0
  0
VERTEX
  5
6AC
  8
PROFILE
 10
-1.821084828785636
 20
-0.5144456420898443
 30
0.0
  0
VERTEX
  5
6AD
  8
PROFILE
 10
-1.828551109325457
 20
-0.514057943412876
 30
0.0
  0
VERTEX
  5
6AE
  8
PROFILE
 10
-1.83552431062627
 20
-0.5129360323402384
 30
0.0
  0
VERTEX
  5
6AF
  8
PROFILE
 10
-1.841862932230461
 20
-0.5111416863093333
 30
0.0
  0
VERTEX
  5
6B0
  8
PROFILE
 10
-1.847425473680417
 20
-0.508736682757562
 30
0.0
  0
VERTEX
  5
6B1
  8
PROFILE
 10
-1.852070434518525
 20
-0.5057827991223259
 30
0.0
  0
VERTEX
  5
6B2
  8
PROFILE
 10
-1.855656314287173
 20
-0.5023418128410267
 30
0.0
  0
VERTEX
  5
6B3
  8
PROFILE
 10
-1.857007879877445
 20
-0.5004579616572914
 30
0.0
  0
VERTEX
  5
6B4
  8
PROFILE
 10
-1.858041612528747
 20
-0.4984755013510657
 30
0.0
  0
VERTEX
  5
6B5
  8
PROFILE
 10
-1.858739824683878
 20
-0.4964021541020249
 30
0.0
  0
VERTEX
  5
6B6
  8
PROFILE
 10
-1.859084828785636
 20
-0.4942456420898443
 30
0.0
  0
VERTEX
  5
6B7
  8
PROFILE
 10
-1.858770952521781
 20
-0.4924318281757307
 30
0.0
  0
VERTEX
  5
6B8
  8
PROFILE
 10
-1.858010467309564
 20
-0.4907424359303305
 30
0.0
  0
VERTEX
  5
6B9
  8
PROFILE
 10
-1.856850088518001
 20
-0.4892136565070174
 30
0.0
  0
VERTEX
  5
6BA
  8
PROFILE
 10
-1.855336531516112
 20
-0.4878816810591654
 30
0.0
  0
VERTEX
  5
6BB
  8
PROFILE
 10
-1.853516511672912
 20
-0.4867827007401482
 30
0.0
  0
VERTEX
  5
6BC
  8
PROFILE
 10
-1.851436744357421
 20
-0.4859529067033397
 30
0.0
  0
VERTEX
  5
6BD
  8
PROFILE
 10
-1.849143944938656
 20
-0.4854284901021139
 30
0.0
  0
VERTEX
  5
6BE
  8
PROFILE
 10
-1.846684828785636
 20
-0.4852456420898443
 30
0.0
  0
VERTEX
  5
6BF
  8
PROFILE
 10
-1.847313191950146
 20
-0.4850768885054736
 30
0.0
  0
VERTEX
  5
6C0
  8
PROFILE
 10
-1.846684828785636
 20
-0.4850456420898444
 30
0.0
  0
VERTEX
  5
6C1
  8
PROFILE
 10
-1.842451729455281
 20
-0.4853733035896023
 30
0.0
  0
VERTEX
  5
6C2
  8
PROFILE
 10
-1.838561661053262
 20
-0.486319406089199
 30
0.0
  0
VERTEX
  5
6C3
  8
PROFILE
 10
-1.83513317651743
 20
-0.4878286265891183
 30
0.0
  0
VERTEX
  5
6C4
  8
PROFILE
 10
-1.832284828785636
 20
-0.4898456420898443
 30
0.0
  0
VERTEX
  5
6C5
  8
PROFILE
 10
-1.808684828785636
 20
-0.5054456420898443
 30
0.0
  0
VERTEX
  5
6C6
  8
PROFILE
 10
-1.802330251181519
 20
-0.5091963534615642
 30
0.0
  0
VERTEX
  5
6C7
  8
PROFILE
 10
-1.795346988858805
 20
-0.5120296077535954
 30
0.0
  0
VERTEX
  5
6C8
  8
PROFILE
 10
-1.791650102391103
 20
-0.5130632741971694
 30
0.0
  0
VERTEX
  5
6C9
  8
PROFILE
 10
-1.787832646499506
 20
-0.5138208792137511
 30
0.0
  0
VERTEX
  5
6CA
  8
PROFILE
 10
-1.783906821769267
 20
-0.5142868570843171
 30
0.0
  0
VERTEX
  5
6CB
  8
PROFILE
 10
-1.779884828785636
 20
-0.5144456420898443
 30
0.0
  0
VERTEX
  5
6CC
  8
PROFILE
 10
-1.772155167949731
 20
-0.513983047390459
 30
0.0
  0
VERTEX
  5
6CD
  8
PROFILE
 10
-1.764648791907082
 20
-0.5126252885454725
 30
0.0
  0
VERTEX
  5
6CE
  8
PROFILE
 10
-1.75740370136873
 20
-0.5104174034346389
 30
0.0
  0
VERTEX
  5
6CF
  8
PROFILE
 10
-1.75045789704572
 20
-0.5074044299377124
 30
0.0
  0
VERTEX
  5
6D0
  8
PROFILE
 10
-1.743849379649092
 20
-0.5036314059344471
 30
0.0
  0
VERTEX
  5
6D1
  8
PROFILE
 10
-1.73761614988989
 20
-0.499143369304597
 30
0.0
  0
VERTEX
  5
6D2
  8
PROFILE
 10
-1.731796208479156
 20
-0.4939853579279163
 30
0.0
  0
VERTEX
  5
6D3
  8
PROFILE
 10
-1.726427556127932
 20
-0.4882024096841592
 30
0.0
  0
VERTEX
  5
6D4
  8
PROFILE
 10
-1.721548193547262
 20
-0.4818395624530798
 30
0.0
  0
VERTEX
  5
6D5
  8
PROFILE
 10
-1.717196121448188
 20
-0.4749418541144321
 30
0.0
  0
VERTEX
  5
6D6
  8
PROFILE
 10
-1.713409340541752
 20
-0.4675543225479703
 30
0.0
  0
VERTEX
  5
6D7
  8
PROFILE
 10
-1.710225851538997
 20
-0.4597220056334486
 30
0.0
  0
VERTEX
  5
6D8
  8
PROFILE
 10
-1.707683655150965
 20
-0.451489941250621
 30
0.0
  0
VERTEX
  5
6D9
  8
PROFILE
 10
-1.705820752088699
 20
-0.4429031672792416
 30
0.0
  0
VERTEX
  5
6DA
  8
PROFILE
 10
-1.704675143063242
 20
-0.4340067215990647
 30
0.0
  0
VERTEX
  5
6DB
  8
PROFILE
 10
-1.704284828785636
 20
-0.4248456420898443
 30
0.0
  0
VERTEX
  5
6DC
  8
PROFILE
 10
-1.704284828785636
 20
-0.4158456420898443
 30
0.0
  0
VERTEX
  5
6DD
  8
PROFILE
 10
-1.704463612813031
 20
-0.4104320640432201
 30
0.0
  0
VERTEX
  5
6DE
  8
PROFILE
 10
-1.704994209496523
 20
-0.4050895532017864
 30
0.0
  0
VERTEX
  5
6DF
  8
PROFILE
 10
-1.705867985738066
 20
-0.3998247194775832
 30
0.0
  0
VERTEX
  5
6E0
  8
PROFILE
 10
-1.707076308439616
 20
-0.3946441727826502
 30
0.0
  0
VERTEX
  5
6E1
  8
PROFILE
 10
-1.708610544503129
 20
-0.3895545230290272
 30
0.0
  0
VERTEX
  5
6E2
  8
PROFILE
 10
-1.71046206083056
 20
-0.3845623801287539
 30
0.0
  0
VERTEX
  5
6E3
  8
PROFILE
 10
-1.712622224323864
 20
-0.3796743539938703
 30
0.0
  0
VERTEX
  5
6E4
  8
PROFILE
 10
-1.715082401884999
 20
-0.3748970545364161
 30
0.0
  0
VERTEX
  5
6E5
  8
PROFILE
 10
-1.717833960415918
 20
-0.3702370916684312
 30
0.0
  0
VERTEX
  5
6E6
  8
PROFILE
 10
-1.720868266818578
 20
-0.3657010753019553
 30
0.0
  0
VERTEX
  5
6E7
  8
PROFILE
 10
-1.727750590846941
 20
-0.3570273217216899
 30
0.0
  0
VERTEX
  5
6E8
  8
PROFILE
 10
-1.735660309185735
 20
-0.3489286730919384
 30
0.0
  0
VERTEX
  5
6E9
  8
PROFILE
 10
-1.744528357050604
 20
-0.3414580087090193
 30
0.0
  0
VERTEX
  5
6EA
  8
PROFILE
 10
-1.754285669657192
 20
-0.3346682078692509
 30
0.0
  0
VERTEX
  5
6EB
  8
PROFILE
 10
-1.764863182221145
 20
-0.3286121498689517
 30
0.0
  0
VERTEX
  5
6EC
  8
PROFILE
 10
-1.776191829958107
 20
-0.3233427140044403
 30
0.0
  0
VERTEX
  5
6ED
  8
PROFILE
 10
-1.788202548083725
 20
-0.318912779572035
 30
0.0
  0
VERTEX
  5
6EE
  8
PROFILE
 10
-1.800826271813641
 20
-0.3153752258680543
 30
0.0
  0
VERTEX
  5
6EF
  8
PROFILE
 10
-1.813993936363502
 20
-0.3127829321888166
 30
0.0
  0
VERTEX
  5
6F0
  8
PROFILE
 10
-1.827636476948952
 20
-0.3111887778306405
 30
0.0
  0
VERTEX
  5
6F1
  8
PROFILE
 10
-1.841684828785636
 20
-0.3106456420898444
 30
0.0
  0
VERTEX
  5
6F2
  8
PROFILE
 10
-1.794684828785636
 20
-0.2110456420898443
 30
0.0
  0
VERTEX
  5
6F3
  8
PROFILE
 10
-1.715084828785636
 20
-0.2110456420898443
 30
0.0
  0
VERTEX
  5
6F4
  8
PROFILE
 10
-1.71080807833868
 20
-0.2108020457838192
 30
0.0
  0
VERTEX
  5
6F5
  8
PROFILE
 10
-1.706737401734394
 20
-0.2100997404691866
 30
0.0
  0
VERTEX
  5
6F6
  8
PROFILE
 10
-1.702920012115295
 20
-0.2089814515511111
 30
0.0
  0
VERTEX
  5
6F7
  8
PROFILE
 10
-1.699403122623897
 20
-0.2074899044347571
 30
0.0
  0
VERTEX
  5
6F8
  8
PROFILE
 10
-1.696233946402716
 20
-0.2056678245252889
 30
0.0
  0
VERTEX
  5
6F9
  8
PROFILE
 10
-1.693459696594269
 20
-0.2035579372278711
 30
0.0
  0
VERTEX
  5
6FA
  8
PROFILE
 10
-1.69112758634107
 20
-0.2012029679476681
 30
0.0
  0
VERTEX
  5
6FB
  8
PROFILE
 10
-1.689284828785636
 20
-0.1986456420898444
 30
0.0
  0
SEQEND
  5
E5F
  8
PROFILE
  0
POLYLINE
  5
134
  8
PROFILE
 66
     1
 10
0.0
 20
0.0
 30
0.0
  0
VERTEX
  5
6FC
  8
PROFILE
 10
0.613048504547697
 20
-1.155537992014131
 30
0.0
  0
VERTEX
  5
6FD
  8
PROFILE
 10
0.613048504547697
 20
-1.146604658680798
 30
0.0
  0
VERTEX
  5
6FE
  8
PROFILE
 10
0.6148488828031875
 20
-1.146786152263347
 30
0.0
  0
VERTEX
  5
6FF
  8
PROFILE
 10
0.6165257610319552
 20
-1.147306684297156
 30
0.0
  0
VERTEX
  5
700
  8
PROFILE
 10
0.6180432161632438
 20
-1.14813033171147
 30
0.0
  0
VERTEX
  5
701
  8
PROFILE
 10
0.6193653251262968
 20
-1.149221171435531
 30
0.0
  0
VERTEX
  5
702
  8
PROFILE
 10
0.6204561648503584
 20
-1.150543280398585
 30
0.0
  0
VERTEX
  5
703
  8
PROFILE
 10
0.6212798122646719
 20
-1.152060735529873
 30
0.0
  0
VERTEX
  5
704
  8
PROFILE
 10
0.6218003442984814
 20
-1.153737613758641
 30
0.0
  0
VERTEX
  5
705
  8
PROFILE
 10
0.6219818378810303
 20
-1.155537992014131
 30
0.0
  0
VERTEX
  5
706
  8
PROFILE
 10
0.6218003442984814
 20
-1.157338370269622
 30
0.0
  0
VERTEX
  5
707
  8
PROFILE
 10
0.6212798122646719
 20
-1.15901524849839
 30
0.0
  0
VERTEX
  5
708
  8
PROFILE
 10
0.6204561648503584
 20
-1.160532703629678
 30
0.0
  0
VERTEX
  5
709
  8
PROFILE
 10
0.6193653251262968
 20
-1.161854812592731
 30
0.0
  0
VERTEX
  5
70A
  8
PROFILE
 10
0.6180432161632438
 20
-1.162945652316792
 30
0.0
  0
VERTEX
  5
70B
  8
PROFILE
 10
0.6165257610319552
 20
-1.163769299731106
 30
0.0
  0
VERTEX
  5
70C
  8
PROFILE
 10
0.6148488828031875
 20
-1.164289831764916
 30
0.0
  0
VERTEX
  5
70D
  8
PROFILE
 10
0.613048504547697
 20
-1.164471325347465
 30
0.0
  0
VERTEX
  5
70E
  8
PROFILE
 10
0.6112481262922065
 20
-1.164289831764916
 30
0.0
  0
VERTEX
  5
70F
  8
PROFILE
 10
0.6095712480634388
 20
-1.163769299731106
 30
0.0
  0
VERTEX
  5
710
  8
PROFILE
 10
0.6080537929321502
 20
-1.162945652316792
 30
0.0
  0
VERTEX
  5
711
  8
PROFILE
 10
0.6067316839690972
 20
-1.161854812592731
 30
0.0
  0
VERTEX
  5
712
  8
PROFILE
 10
0.6056408442450356
 20
-1.160532703629678
 30
0.0
  0
VERTEX
  5
713
  8
PROFILE
 10
0.6048171968307221
 20
-1.15901524849839
 30
0.0
  0
VERTEX
  5
714
  8
PROFILE
 10
0.6042966647969126
 20
-1.157338370269622
 30
0.0
  0
VERTEX
  5
715
  8
PROFILE
 10
0.6041151712143636
 20
-1.155537992014131
 30
0.0
  0
VERTEX
  5
716
  8
PROFILE
 10
0.6042966647969126
 20
-1.153737613758641
 30
0.0
  0
VERTEX
  5
717
  8
PROFILE
 10
0.6048171968307221
 20
-1.152060735529873
 30
0.0
  0
VERTEX
  5
718
  8
PROFILE
 10
0.6056408442450356
 20
-1.150543280398585
 30
0.0
  0
VERTEX
  5
719
  8
PROFILE
 10
0.6067316839690972
 20
-1.149221171435531
 30
0.0
  0
VERTEX
  5
71A
  8
PROFILE
 10
0.6080537929321502
 20
-1.14813033171147
 30
0.0
  0
VERTEX
  5
71B
  8
PROFILE
 10
0.6095712480634388
 20
-1.147306684297156
 30
0.0
  0
VERTEX
  5
71C
  8
PROFILE
 10
0.6112481262922065
 20
-1.146786152263347
 30
0.0
  0
VERTEX
  5
71D
  8
PROFILE
 10
0.613048504547697
 20
-1.146604658680798
 30
0.0
  0
SEQEND
  5
E60
  8
PROFILE
  0
POLYLINE
  5
135
  8
PROFILE
 66
     1
 10
0.0
 20
0.0
 30
0.0
  0
VERTEX
  5
71E
  8
PROFILE
 10
0.7278485045476969
 20
-1.038337992014131
 30
0.0
  0
VERTEX
  5
71F
  8
PROFILE
 10
0.7201005915324135
 20
-1.038849438044037
 30
0.0
  0
VERTEX
  5
720
  8
PROFILE
 10
0.712671620313633
 20
-1.040243902211906
 30
0.0
  0
VERTEX
  5
721
  8
PROFILE
 10
0.7056303932810015
 20
-1.042461573634958
 30
0.0
  0
VERTEX
  5
722
  8
PROFILE
 10
0.6990457128241652
 20
-1.045442641430419
 30
0.0
  0
VERTEX
  5
723
  8
PROFILE
 10
0.6929863813327702
 20
-1.04912729471551
 30
0.0
  0
VERTEX
  5
724
  8
PROFILE
 10
0.6875212011964631
 20
-1.053455722607455
 30
0.0
  0
VERTEX
  5
725
  8
PROFILE
 10
0.6827189748048899
 20
-1.058368114223476
 30
0.0
  0
VERTEX
  5
726
  8
PROFILE
 10
0.6786485045476969
 20
-1.063804658680798
 30
0.0
  0
VERTEX
  5
727
  8
PROFILE
 10
0.6779818378810302
 20
-1.075671325347465
 30
0.0
  0
VERTEX
  5
728
  8
PROFILE
 10
0.6779818378810302
 20
-1.082471325347464
 30
0.0
  0
VERTEX
  5
729
  8
PROFILE
 10
0.6782289680850173
 20
-1.091168897857707
 30
0.0
  0
VERTEX
  5
72A
  8
PROFILE
 10
0.6789543184203597
 20
-1.099615225750493
 30
0.0
  0
VERTEX
  5
72B
  8
PROFILE
 10
0.6801338284721294
 20
-1.107767549848321
 30
0.0
  0
VERTEX
  5
72C
  8
PROFILE
 10
0.6817434378253983
 20
-1.115583110973684
 30
0.0
  0
VERTEX
  5
72D
  8
PROFILE
 10
0.6837590860652378
 20
-1.123019149949078
 30
0.0
  0
VERTEX
  5
72E
  8
PROFILE
 10
0.6861567127767203
 20
-1.130032907596999
 30
0.0
  0
VERTEX
  5
72F
  8
PROFILE
 10
0.6889122575449174
 20
-1.136581624739941
 30
0.0
  0
VERTEX
  5
730
  8
PROFILE
 10
0.6920016599549006
 20
-1.1426225422004
 30
0.0
  0
VERTEX
  5
731
  8
PROFILE
 10
0.6954008595917421
 20
-1.148112900800872
 30
0.0
  0
VERTEX
  5
732
  8
PROFILE
 10
0.6990857960405138
 20
-1.153009941363852
 30
0.0
  0
VERTEX
  5
733
  8
PROFILE
 10
0.7030324088862873
 20
-1.157270904711834
 30
0.0
  0
VERTEX
  5
734
  8
PROFILE
 10
0.7072166377141345
 20
-1.160853031667315
 30
0.0
  0
VERTEX
  5
735
  8
PROFILE
 10
0.7116144221091272
 20
-1.16371356305279
 30
0.0
  0
VERTEX
  5
736
  8
PROFILE
 10
0.7162017016563371
 20
-1.165809739690754
 30
0.0
  0
VERTEX
  5
737
  8
PROFILE
 10
0.7209544159408364
 20
-1.167098802403703
 30
0.0
  0
VERTEX
  5
738
  8
PROFILE
 10
0.7258485045476969
 20
-1.167537992014131
 30
0.0
  0
VERTEX
  5
739
  8
PROFILE
 10
0.730142760567644
 20
-1.167244740017199
 30
0.0
  0
VERTEX
  5
73A
  8
PROFILE
 10
0.7343129694802268
 20
-1.166384017892252
 30
0.0
  0
VERTEX
  5
73B
  8
PROFILE
 10
0.7383380197793108
 20
-1.164984376438063
 30
0.0
  0
VERTEX
  5
73C
  8
PROFILE
 10
0.7421967999587613
 20
-1.163074366453404
 30
0.0
  0
VERTEX
  5
73D
  8
PROFILE
 10
0.7458681985124433
 20
-1.160682538737049
 30
0.0
  0
VERTEX
  5
73E
  8
PROFILE
 10
0.7493311039342223
 20
-1.157837444087769
 30
0.0
  0
VERTEX
  5
73F
  8
PROFILE
 10
0.7525644047179634
 20
-1.154567633304338
 30
0.0
  0
VERTEX
  5
740
  8
PROFILE
 10
0.755546989357532
 20
-1.150901657185527
 30
0.0
  0
VERTEX
  5
741
  8
PROFILE
 10
0.7582577463467931
 20
-1.146868066530111
 30
0.0
  0
VERTEX
  5
742
  8
PROFILE
 10
0.7606755641796121
 20
-1.142495412136861
 30
0.0
  0
VERTEX
  5
743
  8
PROFILE
 10
0.7627793313498543
 20
-1.13781224480455
 30
0.0
  0
VERTEX
  5
744
  8
PROFILE
 10
0.764547936351385
 20
-1.132847115331952
 30
0.0
  0
VERTEX
  5
745
  8
PROFILE
 10
0.7659602676780692
 20
-1.127628574517838
 30
0.0
  0
VERTEX
  5
746
  8
PROFILE
 10
0.7669952138237726
 20
-1.122185173160981
 30
0.0
  0
VERTEX
  5
747
  8
PROFILE
 10
0.7676316632823599
 20
-1.116545462060155
 30
0.0
  0
VERTEX
  5
748
  8
PROFILE
 10
0.7678485045476968
 20
-1.110737992014131
 30
0.0
  0
VERTEX
  5
749
  8
PROFILE
 10
0.7678485045476968
 20
-1.105537992014131
 30
0.0
  0
VERTEX
  5
74A
  8
PROFILE
 10
0.7676399239019919
 20
-1.098667182382216
 30
0.0
  0
VERTEX
  5
74B
  8
PROFILE
 10
0.7670277201370649
 20
-1.091994848122083
 30
0.0
  0
VERTEX
  5
74C
  8
PROFILE
 10
0.7660322005111979
 20
-1.085554767643549
 30
0.0
  0
VERTEX
  5
74D
  8
PROFILE
 10
0.764673672282673
 20
-1.079380719356428
 30
0.0
  0
VERTEX
  5
74E
  8
PROFILE
 10
0.7629724427097722
 20
-1.073506481670537
 30
0.0
  0
VERTEX
  5
74F
  8
PROFILE
 10
0.7609488190507773
 20
-1.06796583299569
 30
0.0
  0
VERTEX
  5
750
  8
PROFILE
 10
0.7586231085639704
 20
-1.062792551741705
 30
0.0
  0
VERTEX
  5
751
  8
PROFILE
 10
0.7560156185076334
 20
-1.058020416318395
 30
0.0
  0
VERTEX
  5
752
  8
PROFILE
 10
0.7531466561400484
 20
-1.053683205135577
 30
0.0
  0
VERTEX
  5
753
  8
PROFILE
 10
0.7500365287194974
 20
-1.049814696603067
 30
0.0
  0
VERTEX
  5
754
  8
PROFILE
 10
0.7467055435042624
 20
-1.046448669130679
 30
0.0
  0
VERTEX
  5
755
  8
PROFILE
 10
0.7431740077526254
 20
-1.04361890112823
 30
0.0
  0
VERTEX
  5
756
  8
PROFILE
 10
0.7394622287228685
 20
-1.041359171005535
 30
0.0
  0
VERTEX
  5
757
  8
PROFILE
 10
0.7355905136732733
 20
-1.03970325717241
 30
0.0
  0
VERTEX
  5
758
  8
PROFILE
 10
0.7315791698621221
 20
-1.03868493803867
 30
0.0
  0
VERTEX
  5
759
  8
PROFILE
 10
0.7274485045476968
 20
-1.038337992014131
 30
0.0
  0
VERTEX
  5
75A
  8
PROFILE
 10
0.7305151712143635
 20
-1.038337992014131
 30
0.0
  0
VERTEX
  5
75B
  8
PROFILE
 10
0.7351775063217346
 20
-1.038692575236459
 30
0.0
  0
VERTEX
  5
75C
  8
PROFILE
 10
0.739705161712539
 20
-1.039684963821933
 30
0.0
  0
VERTEX
  5
75D
  8
PROFILE
 10
0.744075216322973
 20
-1.041283116148289
 30
0.0
  0
VERTEX
  5
75E
  8
PROFILE
 10
0.7482647490892336
 20
-1.043454990593261
 30
0.0
  0
VERTEX
  5
75F
  8
PROFILE
 10
0.752250838947517
 20
-1.046168545534587
 30
0.0
  0
VERTEX
  5
760
  8
PROFILE
 10
0.7560105648340198
 20
-1.04939173935
 30
0.0
  0
VERTEX
  5
761
  8
PROFILE
 10
0.7595210056849387
 20
-1.053092530417237
 30
0.0
  0
VERTEX
  5
762
  8
PROFILE
 10
0.7627592404364703
 20
-1.057238877114034
 30
0.0
  0
VERTEX
  5
763
  8
PROFILE
 10
0.765702348024811
 20
-1.061798737818125
 30
0.0
  0
VERTEX
  5
764
  8
PROFILE
 10
0.7683274073861573
 20
-1.066740070907246
 30
0.0
  0
VERTEX
  5
765
  8
PROFILE
 10
0.770611497456706
 20
-1.072030834759133
 30
0.0
  0
VERTEX
  5
766
  8
PROFILE
 10
0.7725316971726536
 20
-1.077638987751521
 30
0.0
  0
VERTEX
  5
767
  8
PROFILE
 10
0.7740650854701965
 20
-1.083532488262147
 30
0.0
  0
VERTEX
  5
768
  8
PROFILE
 10
0.7751887412855316
 20
-1.089679294668744
 30
0.0
  0
VERTEX
  5
769
  8
PROFILE
 10
0.7758797435548551
 20
-1.096047365349049
 30
0.0
  0
VERTEX
  5
76A
  8
PROFILE
 10
0.7761151712143636
 20
-1.102604658680798
 30
0.0
  0
VERTEX
  5
76B
  8
PROFILE
 10
0.7761151712143636
 20
-1.103271325347464
 30
0.0
  0
VERTEX
  5
76C
  8
PROFILE
 10
0.7758563384658981
 20
-1.109842218685923
 30
0.0
  0
VERTEX
  5
76D
  8
PROFILE
 10
0.7750966400645365
 20
-1.116223300260098
 30
0.0
  0
VERTEX
  5
76E
  8
PROFILE
 10
0.7738612757763319
 20
-1.122382266114569
 30
0.0
  0
VERTEX
  5
76F
  8
PROFILE
 10
0.7721754453673374
 20
-1.128286812293919
 30
0.0
  0
VERTEX
  5
770
  8
PROFILE
 10
0.7700643486036056
 20
-1.133904634842728
 30
0.0
  0
VERTEX
  5
771
  8
PROFILE
 10
0.7675531852511895
 20
-1.139203429805577
 30
0.0
  0
VERTEX
  5
772
  8
PROFILE
 10
0.7646671550761419
 20
-1.144150893227047
 30
0.0
  0
VERTEX
  5
773
  8
PROFILE
 10
0.7614314578445159
 20
-1.14871472115172
 30
0.0
  0
VERTEX
  5
774
  8
PROFILE
 10
0.7578712933223644
 20
-1.152862609624177
 30
0.0
  0
VERTEX
  5
775
  8
PROFILE
 10
0.75401186127574
 20
-1.156562254688998
 30
0.0
  0
VERTEX
  5
776
  8
PROFILE
 10
0.7498783614706959
 20
-1.159781352390766
 30
0.0
  0
VERTEX
  5
777
  8
PROFILE
 10
0.745495993673285
 20
-1.16248759877406
 30
0.0
  0
VERTEX
  5
778
  8
PROFILE
 10
0.74088995764956
 20
-1.164648689883463
 30
0.0
  0
VERTEX
  5
779
  8
PROFILE
 10
0.7360854531655739
 20
-1.166232321763555
 30
0.0
  0
VERTEX
  5
77A
  8
PROFILE
 10
0.7311076799873797
 20
-1.167206190458917
 30
0.0
  0
VERTEX
  5
77B
  8
PROFILE
 10
0.7259818378810302
 20
-1.167537992014131
 30
0.0
  0
VERTEX
  5
77C
  8
PROFILE
 10
0.7202016329525934
 20
-1.167098802403703
 30
0.0
  0
VERTEX
  5
77D
  8
PROFILE
 10
0.7145883993686724
 20
-1.165809739690754
 30
0.0
  0
VERTEX
  5
77E
  8
PROFILE
 10
0.7091705538867306
 20
-1.16371356305279
 30
0.0
  0
VERTEX
  5
77F
  8
PROFILE
 10
0.7039765132642323
 20
-1.160853031667315
 30
0.0
  0
VERTEX
  5
780
  8
PROFILE
 10
0.6990346942586412
 20
-1.157270904711834
 30
0.0
  0
VERTEX
  5
781
  8
PROFILE
 10
0.6943735136274213
 20
-1.153009941363852
 30
0.0
  0
VERTEX
  5
782
  8
PROFILE
 10
0.6900213881280364
 20
-1.148112900800872
 30
0.0
  0
VERTEX
  5
783
  8
PROFILE
 10
0.6860067345179506
 20
-1.1426225422004
 30
0.0
  0
VERTEX
  5
784
  8
PROFILE
 10
0.6823579695546276
 20
-1.136581624739941
 30
0.0
  0
VERTEX
  5
785
  8
PROFILE
 10
0.6791035099955315
 20
-1.130032907596999
 30
0.0
  0
VERTEX
  5
786
  8
PROFILE
 10
0.6762717725981261
 20
-1.123019149949078
 30
0.0
  0
VERTEX
  5
787
  8
PROFILE
 10
0.6738911741198753
 20
-1.115583110973684
 30
0.0
  0
VERTEX
  5
788
  8
PROFILE
 10
0.6719901313182431
 20
-1.107767549848321
 30
0.0
  0
VERTEX
  5
789
  8
PROFILE
 10
0.6705970609506933
 20
-1.099615225750493
 30
0.0
  0
VERTEX
  5
78A
  8
PROFILE
 10
0.6697403797746899
 20
-1.091168897857707
 30
0.0
  0
VERTEX
  5
78B
  8
PROFILE
 10
0.6694485045476969
 20
-1.082471325347464
 30
0.0
  0
VERTEX
  5
78C
  8
PROFILE
 10
0.6694485045476969
 20
-1.075671325347465
 30
0.0
  0
VERTEX
  5
78D
  8
PROFILE
 10
0.6693151712143636
 20
-1.075671325347465
 30
0.0
  0
VERTEX
  5
78E
  8
PROFILE
 10
0.6698511670030567
 20
-1.064386837655512
 30
0.0
  0
VERTEX
  5
78F
  8
PROFILE
 10
0.671427472158818
 20
-1.053422785054511
 30
0.0
  0
VERTEX
  5
790
  8
PROFILE
 10
0.6739965633661702
 20
-1.042833154911407
 30
0.0
  0
VERTEX
  5
791
  8
PROFILE
 10
0.6775109173096359
 20
-1.032671934593148
 30
0.0
  0
VERTEX
  5
792
  8
PROFILE
 10
0.681923010673738
 20
-1.022993111466681
 30
0.0
  0
VERTEX
  5
793
  8
PROFILE
 10
0.6871853201429993
 20
-1.013850672898954
 30
0.0
  0
VERTEX
  5
794
  8
PROFILE
 10
0.6932503224019424
 20
-1.005298606256915
 30
0.0
  0
VERTEX
  5
795
  8
PROFILE
 10
0.7000704941350899
 20
-0.9973908989075102
 30
0.0
  0
VERTEX
  5
796
  8
PROFILE
 10
0.7075983120269649
 20
-0.9901815382176871
 30
0.0
  0
VERTEX
  5
797
  8
PROFILE
 10
0.7157862527620897
 20
-0.9837245115543933
 30
0.0
  0
VERTEX
  5
798
  8
PROFILE
 10
0.7245867930249874
 20
-0.9780738062845763
 30
0.0
  0
VERTEX
  5
799
  8
PROFILE
 10
0.7339524095001806
 20
-0.9732834097751831
 30
0.0
  0
VERTEX
  5
79A
  8
PROFILE
 10
0.7438355788721921
 20
-0.9694073093931613
 30
0.0
  0
VERTEX
  5
79B
  8
PROFILE
 10
0.7541887778255446
 20
-0.9664994925054582
 30
0.0
  0
VERTEX
  5
79C
  8
PROFILE
 10
0.7649644830447608
 20
-0.9646139464790213
 30
0.0
  0
VERTEX
  5
79D
  8
PROFILE
 10
0.7761151712143636
 20
-0.9638046586807978
 30
0.0
  0
VERTEX
  5
79E
  8
PROFILE
 10
0.7665861381608827
 20
-0.9645174299814081
 30
0.0
  0
VERTEX
  5
79F
  8
PROFILE
 10
0.7573576682253493
 20
-0.9661613394338839
 30
0.0
  0
VERTEX
  5
7A0
  8
PROFILE
 10
0.7484640416840169
 20
-0.9686950639685222
 30
0.0
  0
VERTEX
  5
7A1
  8
PROFILE
 10
0.739939538813139
 20
-0.9720772805156204
 30
0.0
  0
VERTEX
  5
7A2
  8
PROFILE
 10
0.7318184398889693
 20
-0.9762666660054752
 30
0.0
  0
VERTEX
  5
7A3
  8
PROFILE
 10
0.7241350251877614
 20
-0.9812218973683839
 30
0.0
  0
VERTEX
  5
7A4
  8
PROFILE
 10
0.7169235749857688
 20
-0.9869016515346436
 30
0.0
  0
VERTEX
  5
7A5
  8
PROFILE
 10
0.7102183695592448
 20
-0.9932646054345514
 30
0.0
  0
VERTEX
  5
7A6
  8
PROFILE
 10
0.7040536891844434
 20
-1.000269435998404
 30
0.0
  0
VERTEX
  5
7A7
  8
PROFILE
 10
0.698463814137618
 20
-1.0078748201565
 30
0.0
  0
VERTEX
  5
7A8
  8
PROFILE
 10
0.6934830246950224
 20
-1.016039434839135
 30
0.0
  0
VERTEX
  5
7A9
  8
PROFILE
 10
0.6891456011329099
 20
-1.024721956976606
 30
0.0
  0
VERTEX
  5
7AA
  8
PROFILE
 10
0.6854858237275341
 20
-1.033881063499211
 30
0.0
  0
VERTEX
  5
7AB
  8
PROFILE
 10
0.6825379727551488
 20
-1.043475431337246
 30
0.0
  0
VERTEX
  5
7AC
  8
PROFILE
 10
0.6803363284920074
 20
-1.05346373742101
 30
0.0
  0
VERTEX
  5
7AD
  8
PROFILE
 10
0.6789151712143635
 20
-1.063804658680798
 30
0.0
  0
VERTEX
  5
7AE
  8
PROFILE
 10
0.682991731818912
 20
-1.058379687567415
 30
0.0
  0
VERTEX
  5
7AF
  8
PROFILE
 10
0.687797452424227
 20
-1.053472728337323
 30
0.0
  0
VERTEX
  5
7B0
  8
PROFILE
 10
0.6932639586578468
 20
-1.049145009017456
 30
0.0
  0
VERTEX
  5
7B1
  8
PROFILE
 10
0.69932287614731
 20
-1.045457757634746
 30
0.0
  0
VERTEX
  5
7B2
  8
PROFILE
 10
0.705905830520155
 20
-1.042472202216126
 30
0.0
  0
VERTEX
  5
7B3
  8
PROFILE
 10
0.7129444474039199
 20
-1.040249570788528
 30
0.0
  0
VERTEX
  5
7B4
  8
PROFILE
 10
0.7203703524261433
 20
-1.038851091378886
 30
0.0
  0
VERTEX
  5
7B5
  8
PROFILE
 10
0.7281151712143635
 20
-1.038337992014131
 30
0.0
  0
VERTEX
  5
7B6
  8
PROFILE
 10
0.7339818378810302
 20
-1.038337992014131
 30
0.0
  0
VERTEX
  5
7B7
  8
PROFILE
 10
0.7391213125461733
 20
-1.038653960715051
 30
0.0
  0
VERTEX
  5
7B8
  8
PROFILE
 10
0.74411232448282
 20
-1.039581358497564
 30
0.0
  0
VERTEX
  5
7B9
  8
PROFILE
 10
0.7489296069042636
 20
-1.041089422881303
 30
0.0
  0
VERTEX
  5
7BA
  8
PROFILE
 10
0.7535478930237963
 20
-1.0431473913859
 30
0.0
  0
VERTEX
  5
7BB
  8
PROFILE
 10
0.7579419160547111
 20
-1.045724501530987
 30
0.0
  0
VERTEX
  5
7BC
  8
PROFILE
 10
0.7620864092103005
 20
-1.048789990836197
 30
0.0
  0
VERTEX
  5
7BD
  8
PROFILE
 10
0.7659561057038573
 20
-1.052313096821162
 30
0.0
  0
VERTEX
  5
7BE
  8
PROFILE
 10
0.7695257387486742
 20
-1.056263057005514
 30
0.0
  0
VERTEX
  5
7BF
  8
PROFILE
 10
0.7727700415580439
 20
-1.060609108908886
 30
0.0
  0
VERTEX
  5
7C0
  8
PROFILE
 10
0.775663747345259
 20
-1.065320490050908
 30
0.0
  0
VERTEX
  5
7C1
  8
PROFILE
 10
0.7781815893236124
 20
-1.070366437951215
 30
0.0
  0
VERTEX
  5
7C2
  8
PROFILE
 10
0.7802983007063967
 20
-1.075716190129437
 30
0.0
  0
VERTEX
  5
7C3
  8
PROFILE
 10
0.7819886147069046
 20
-1.081338984105208
 30
0.0
  0
VERTEX
  5
7C4
  8
PROFILE
 10
0.7832272645384287
 20
-1.087204057398159
 30
0.0
  0
VERTEX
  5
7C5
  8
PROFILE
 10
0.7839889834142619
 20
-1.093280647527922
 30
0.0
  0
VERTEX
  5
7C6
  8
PROFILE
 10
0.7842485045476969
 20
-1.099537992014131
 30
0.0
  0
VERTEX
  5
7C7
  8
PROFILE
 10
0.7842485045476969
 20
-1.104737992014131
 30
0.0
  0
VERTEX
  5
7C8
  8
PROFILE
 10
0.7839504338559798
 20
-1.111158927205862
 30
0.0
  0
VERTEX
  5
7C9
  8
PROFILE
 10
0.7830755684097311
 20
-1.117394382437057
 30
0.0
  0
VERTEX
  5
7CA
  8
PROFILE
 10
0.7816529281523042
 20
-1.123412790979497
 30
0.0
  0
VERTEX
  5
7CB
  8
PROFILE
 10
0.7797115330270524
 20
-1.129182586104961
 30
0.0
  0
VERTEX
  5
7CC
  8
PROFILE
 10
0.7772804029773293
 20
-1.134672201085228
 30
0.0
  0
VERTEX
  5
7CD
  8
PROFILE
 10
0.7743885579464884
 20
-1.139850069192079
 30
0.0
  0
VERTEX
  5
7CE
  8
PROFILE
 10
0.7710650178778833
 20
-1.144684623697291
 30
0.0
  0
VERTEX
  5
7CF
  8
PROFILE
 10
0.7673388027148671
 20
-1.149144297872646
 30
0.0
  0
VERTEX
  5
7D0
  8
PROFILE
 10
0.7632389324007935
 20
-1.153197524989923
 30
0.0
  0
VERTEX
  5
7D1
  8
PROFILE
 10
0.7587944268790161
 20
-1.1568127383209
 30
0.0
  0
VERTEX
  5
7D2
  8
PROFILE
 10
0.7540343060928882
 20
-1.159958371137357
 30
0.0
  0
VERTEX
  5
7D3
  8
PROFILE
 10
0.7489875899857633
 20
-1.162602856711074
 30
0.0
  0
VERTEX
  5
7D4
  8
PROFILE
 10
0.7436832985009949
 20
-1.164714628313831
 30
0.0
  0
VERTEX
  5
7D5
  8
PROFILE
 10
0.7381504515819366
 20
-1.166262119217406
 30
0.0
  0
VERTEX
  5
7D6
  8
PROFILE
 10
0.7324180691719415
 20
-1.16721376269358
 30
0.0
  0
VERTEX
  5
7D7
  8
PROFILE
 10
0.7265151712143635
 20
-1.167537992014131
 30
0.0
  0
VERTEX
  5
7D8
  8
PROFILE
 10
0.7199306127650279
 20
-1.167098802403703
 30
0.0
  0
VERTEX
  5
7D9
  8
PROFILE
 10
0.7135360645678175
 20
-1.165809739690754
 30
0.0
  0
VERTEX
  5
7DA
  8
PROFILE
 10
0.7073637022863053
 20
-1.16371356305279
 30
0.0
  0
VERTEX
  5
7DB
  8
PROFILE
 10
0.7014457015840647
 20
-1.160853031667315
 30
0.0
  0
VERTEX
  5
7DC
  8
PROFILE
 10
0.6958142381246689
 20
-1.157270904711834
 30
0.0
  0
VERTEX
  5
7DD
  8
PROFILE
 10
0.6905014875716912
 20
-1.153009941363852
 30
0.0
  0
VERTEX
  5
7DE
  8
PROFILE
 10
0.6855396255887048
 20
-1.148112900800872
 30
0.0
  0
VERTEX
  5
7DF
  8
PROFILE
 10
0.6809608278392831
 20
-1.1426225422004
 30
0.0
  0
VERTEX
  5
7E0
  8
PROFILE
 10
0.6767972699869993
 20
-1.136581624739941
 30
0.0
  0
VERTEX
  5
7E1
  8
PROFILE
 10
0.6730811276954268
 20
-1.130032907596999
 30
0.0
  0
VERTEX
  5
7E2
  8
PROFILE
 10
0.6698445766281388
 20
-1.123019149949078
 30
0.0
  0
VERTEX
  5
7E3
  8
PROFILE
 10
0.6671197924487084
 20
-1.115583110973684
 30
0.0
  0
VERTEX
  5
7E4
  8
PROFILE
 10
0.6649389508207091
 20
-1.107767549848321
 30
0.0
  0
VERTEX
  5
7E5
  8
PROFILE
 10
0.6633342274077141
 20
-1.099615225750493
 30
0.0
  0
VERTEX
  5
7E6
  8
PROFILE
 10
0.6623377978732967
 20
-1.091168897857707
 30
0.0
  0
VERTEX
  5
7E7
  8
PROFILE
 10
0.6619818378810302
 20
-1.082471325347464
 30
0.0
  0
VERTEX
  5
7E8
  8
PROFILE
 10
0.6619818378810302
 20
-1.075671325347465
 30
0.0
  0
VERTEX
  5
7E9
  8
PROFILE
 10
0.6625613289734444
 20
-1.06438683750406
 30
0.0
  0
VERTEX
  5
7EA
  8
PROFILE
 10
0.6642655490704878
 20
-1.053422784761141
 30
0.0
  0
VERTEX
  5
7EB
  8
PROFILE
 10
0.6670431184018613
 20
-1.042833154487937
 30
0.0
  0
VERTEX
  5
7EC
  8
PROFILE
 10
0.6708426571972657
 20
-1.032671934053681
 30
0.0
  0
VERTEX
  5
7ED
  8
PROFILE
 10
0.675612785686402
 20
-1.022993110827604
 30
0.0
  0
VERTEX
  5
7EE
  8
PROFILE
 10
0.6813021240989715
 20
-1.013850672178937
 30
0.0
  0
VERTEX
  5
7EF
  8
PROFILE
 10
0.6878592926646749
 20
-1.005298605476913
 30
0.0
  0
VERTEX
  5
7F0
  8
PROFILE
 10
0.6952329116132133
 20
-0.9973908980907624
 30
0.0
  0
VERTEX
  5
7F1
  8
PROFILE
 10
0.7033716011742877
 20
-0.9901815373897171
 30
0.0
  0
VERTEX
  5
7F2
  8
PROFILE
 10
0.7122239815775989
 20
-0.9837245107430087
 30
0.0
  0
VERTEX
  5
7F3
  8
PROFILE
 10
0.7217386730528481
 20
-0.9780738055198686
 30
0.0
  0
VERTEX
  5
7F4
  8
PROFILE
 10
0.7318642958297362
 20
-0.9732834090895285
 30
0.0
  0
VERTEX
  5
7F5
  8
PROFILE
 10
0.7425494701379641
 20
-0.9694073088212198
 30
0.0
  0
VERTEX
  5
7F6
  8
PROFILE
 10
0.7537428162072328
 20
-0.9664994920841741
 30
0.0
  0
VERTEX
  5
7F7
  8
PROFILE
 10
0.7653929542672435
 20
-0.9646139462476229
 30
0.0
  0
VERTEX
  5
7F8
  8
PROFILE
 10
0.7774485045476969
 20
-0.9638046586807978
 30
0.0
  0
SEQEND
  5
E61
  8
PROFILE
  0
POLYLINE
  5
136
  8
PROFILE
 66
     1
 10
0.0
 20
0.0
 30
0.0
  0
VERTEX
  5
7F9
  8
PROFILE
 10
0.8362485045476978
 20
-1.094337992014131
 30
0.0
  0
VERTEX
  5
7FA
  8
PROFILE
 10
0.8331432204407192
 20
-1.099756940438143
 30
0.0
  0
VERTEX
  5
7FB
  8
PROFILE
 10
0.8307482394974275
 20
-1.105770792420429
 30
0.0
  0
VERTEX
  5
7FC
  8
PROFILE
 10
0.8291367244126043
 20
-1.112401577532899
 30
0.0
  0
VERTEX
  5
7FD
  8
PROFILE
 10
0.8283818378810311
 20
-1.119671325347464
 30
0.0
  0
VERTEX
  5
7FE
  8
PROFILE
 10
0.8286565684469175
 20
-1.124865330247781
 30
0.0
  0
VERTEX
  5
7FF
  8
PROFILE
 10
0.8294145819936736
 20
-1.129909297218239
 30
0.0
  0
VERTEX
  5
800
  8
PROFILE
 10
0.8306316112949448
 20
-1.134777691389512
 30
0.0
  0
VERTEX
  5
801
  8
PROFILE
 10
0.8322833891243766
 20
-1.139444977892276
 30
0.0
  0
VERTEX
  5
802
  8
PROFILE
 10
0.8343456482556144
 20
-1.143885621857206
 30
0.0
  0
VERTEX
  5
803
  8
PROFILE
 10
0.8367941214623038
 20
-1.148074088414976
 30
0.0
  0
VERTEX
  5
804
  8
PROFILE
 10
0.8396045415180902
 20
-1.151984842696263
 30
0.0
  0
VERTEX
  5
805
  8
PROFILE
 10
0.842752641196619
 20
-1.155592349831741
 30
0.0
  0
VERTEX
  5
806
  8
PROFILE
 10
0.8462141532715357
 20
-1.158871074952086
 30
0.0
  0
VERTEX
  5
807
  8
PROFILE
 10
0.8499648105164856
 20
-1.161795483187972
 30
0.0
  0
VERTEX
  5
808
  8
PROFILE
 10
0.8539803457051145
 20
-1.164340039670074
 30
0.0
  0
VERTEX
  5
809
  8
PROFILE
 10
0.8582364916110676
 20
-1.166479209529068
 30
0.0
  0
VERTEX
  5
80A
  8
PROFILE
 10
0.8627089810079904
 20
-1.168187457895629
 30
0.0
  0
VERTEX
  5
80B
  8
PROFILE
 10
0.8673735466695283
 20
-1.169439249900432
 30
0.0
  0
VERTEX
  5
80C
  8
PROFILE
 10
0.8722059213693267
 20
-1.170209050674152
 30
0.0
  0
VERTEX
  5
80D
  8
PROFILE
 10
0.8771818378810312
 20
-1.170471325347465
 30
0.0
  0
VERTEX
  5
80E
  8
PROFILE
 10
0.8801151712143646
 20
-1.170471325347465
 30
0.0
  0
VERTEX
  5
80F
  8
PROFILE
 10
0.8850910551739859
 20
-1.170247600232434
 30
0.0
  0
VERTEX
  5
810
  8
PROFILE
 10
0.8899232020092009
 20
-1.16959094602913
 30
0.0
  0
VERTEX
  5
811
  8
PROFILE
 10
0.8945871491811554
 20
-1.16852314445023
 30
0.0
  0
VERTEX
  5
812
  8
PROFILE
 10
0.8990584341509948
 20
-1.167065977208413
 30
0.0
  0
VERTEX
  5
813
  8
PROFILE
 10
0.9033125943798646
 20
-1.165241226016357
 30
0.0
  0
VERTEX
  5
814
  8
PROFILE
 10
0.90732516732891
 20
-1.163070672586742
 30
0.0
  0
VERTEX
  5
815
  8
PROFILE
 10
0.9110716904592768
 20
-1.160576098632246
 30
0.0
  0
VERTEX
  5
816
  8
PROFILE
 10
0.91452770123211
 20
-1.157779285865548
 30
0.0
  0
VERTEX
  5
817
  8
PROFILE
 10
0.9176687371085555
 20
-1.154702015999327
 30
0.0
  0
VERTEX
  5
818
  8
PROFILE
 10
0.9204703355497585
 20
-1.151366070746261
 30
0.0
  0
VERTEX
  5
819
  8
PROFILE
 10
0.9229080340168647
 20
-1.147793231819028
 30
0.0
  0
VERTEX
  5
81A
  8
PROFILE
 10
0.9249573699710191
 20
-1.144005280930309
 30
0.0
  0
VERTEX
  5
81B
  8
PROFILE
 10
0.9265938808733676
 20
-1.14002399979278
 30
0.0
  0
VERTEX
  5
81C
  8
PROFILE
 10
0.9277931041850553
 20
-1.135871170119122
 30
0.0
  0
VERTEX
  5
81D
  8
PROFILE
 10
0.9285305773672281
 20
-1.131568573622013
 30
0.0
  0
VERTEX
  5
81E
  8
PROFILE
 10
0.9287818378810312
 20
-1.127137992014131
 30
0.0
  0
VERTEX
  5
81F
  8
PROFILE
 10
0.9287818378810312
 20
-1.126471325347465
 30
0.0
  0
VERTEX
  5
820
  8
PROFILE
 10
0.9284589182077909
 20
-1.120471641649395
 30
0.0
  0
VERTEX
  5
821
  8
PROFILE
 10
0.9275151609061126
 20
-1.114686899997824
 30
0.0
  0
VERTEX
  5
822
  8
PROFILE
 10
0.925988068553059
 20
-1.109159584183513
 30
0.0
  0
VERTEX
  5
823
  8
PROFILE
 10
0.9239151437256929
 20
-1.103932177997222
 30
0.0
  0
VERTEX
  5
824
  8
PROFILE
 10
0.9213338890010775
 20
-1.099047165229711
 30
0.0
  0
VERTEX
  5
825
  8
PROFILE
 10
0.9182818069562757
 20
-1.094547029671741
 30
0.0
  0
VERTEX
  5
826
  8
PROFILE
 10
0.9147964001683503
 20
-1.090474255114072
 30
0.0
  0
VERTEX
  5
827
  8
PROFILE
 10
0.9109151712143645
 20
-1.086871325347464
 30
0.0
  0
VERTEX
  5
828
  8
PROFILE
 10
0.8482485045476978
 20
-1.036871325347465
 30
0.0
  0
VERTEX
  5
829
  8
PROFILE
 10
0.8445836509300677
 20
-1.033652943322036
 30
0.0
  0
VERTEX
  5
82A
  8
PROFILE
 10
0.8412974271231528
 20
-1.029961493080975
 30
0.0
  0
VERTEX
  5
82B
  8
PROFILE
 10
0.8384216877860189
 20
-1.025840896640493
 30
0.0
  0
VERTEX
  5
82C
  8
PROFILE
 10
0.8359882875777319
 20
-1.0213350760168
 30
0.0
  0
VERTEX
  5
82D
  8
PROFILE
 10
0.8340290811573572
 20
-1.016487953226107
 30
0.0
  0
VERTEX
  5
82E
  8
PROFILE
 10
0.8325759231839606
 20
-1.011343450284624
 30
0.0
  0
VERTEX
  5
82F
  8
PROFILE
 10
0.8316606683166078
 20
-1.005945489208562
 30
0.0
  0
VERTEX
  5
830
  8
PROFILE
 10
0.8313151712143645
 20
-1.000337992014131
 30
0.0
  0
VERTEX
  5
831
  8
PROFILE
 10
0.8313151712143645
 20
-0.9988713253474645
 30
0.0
  0
VERTEX
  5
832
  8
PROFILE
 10
0.8315512872588424
 20
-0.9948360553925102
 30
0.0
  0
VERTEX
  5
833
  8
PROFILE
 10
0.8322443100026375
 20
-0.9909171550259441
 30
0.0
  0
VERTEX
  5
834
  8
PROFILE
 10
0.8333712513612923
 20
-0.9871342670489676
 30
0.0
  0
VERTEX
  5
835
  8
PROFILE
 10
0.8349091232503485
 20
-0.9835070342627816
 30
0.0
  0
VERTEX
  5
836
  8
PROFILE
 10
0.8368349375853485
 20
-0.9800550994685875
 30
0.0
  0
VERTEX
  5
837
  8
PROFILE
 10
0.8391257062818346
 20
-0.9767981054675865
 30
0.0
  0
VERTEX
  5
838
  8
PROFILE
 10
0.8417584412553487
 20
-0.9737556950609798
 30
0.0
  0
VERTEX
  5
839
  8
PROFILE
 10
0.844710154421433
 20
-0.9709475110499686
 30
0.0
  0
VERTEX
  5
83A
  8
PROFILE
 10
0.8479578576956298
 20
-0.9683931962357542
 30
0.0
  0
VERTEX
  5
83B
  8
PROFILE
 10
0.8514785629934812
 20
-0.9661123934195377
 30
0.0
  0
VERTEX
  5
83C
  8
PROFILE
 10
0.8552492822305294
 20
-0.9641247454025204
 30
0.0
  0
VERTEX
  5
83D
  8
PROFILE
 10
0.8592470273223165
 20
-0.9624498949859035
 30
0.0
  0
VERTEX
  5
83E
  8
PROFILE
 10
0.8634488101843848
 20
-0.9611074849708883
 30
0.0
  0
VERTEX
  5
83F
  8
PROFILE
 10
0.8678316427322763
 20
-0.9601171581586758
 30
0.0
  0
VERTEX
  5
840
  8
PROFILE
 10
0.8723725368815334
 20
-0.9594985573504675
 30
0.0
  0
VERTEX
  5
841
  8
PROFILE
 10
0.8770485045476979
 20
-0.9592713253474645
 30
0.0
  0
VERTEX
  5
842
  8
PROFILE
 10
0.8728360438805117
 20
-0.9594792825713265
 30
0.0
  0
VERTEX
  5
843
  8
PROFILE
 10
0.8687452675186447
 20
-0.960041310094327
 30
0.0
  0
VERTEX
  5
844
  8
PROFILE
 10
0.8647968848443051
 20
-0.960939641693588
 30
0.0
  0
VERTEX
  5
845
  8
PROFILE
 10
0.8610116052397013
 20
-0.9621565111462314
 30
0.0
  0
VERTEX
  5
846
  8
PROFILE
 10
0.8574101380870418
 20
-0.9636741522293789
 30
0.0
  0
VERTEX
  5
847
  8
PROFILE
 10
0.8540131927685348
 20
-0.9654747987201524
 30
0.0
  0
VERTEX
  5
848
  8
PROFILE
 10
0.8508414786663889
 20
-0.9675406843956738
 30
0.0
  0
VERTEX
  5
849
  8
PROFILE
 10
0.8479157051628121
 20
-0.9698540430330651
 30
0.0
  0
VERTEX
  5
84A
  8
PROFILE
 10
0.845256581640013
 20
-0.972397108409448
 30
0.0
  0
VERTEX
  5
84B
  8
PROFILE
 10
0.8428848174802
 20
-0.9751521143019444
 30
0.0
  0
VERTEX
  5
84C
  8
PROFILE
 10
0.8408211220655815
 20
-0.9781012944876761
 30
0.0
  0
VERTEX
  5
84D
  8
PROFILE
 10
0.8390862047783657
 20
-0.9812268827437651
 30
0.0
  0
VERTEX
  5
84E
  8
PROFILE
 10
0.837700775000761
 20
-0.9845111128473334
 30
0.0
  0
VERTEX
  5
84F
  8
PROFILE
 10
0.836685542114976
 20
-0.9879362185755025
 30
0.0
  0
VERTEX
  5
850
  8
PROFILE
 10
0.8360612155032189
 20
-0.9914844337053945
 30
0.0
  0
VERTEX
  5
851
  8
PROFILE
 10
0.8358485045476979
 20
-0.9951379920141312
 30
0.0
  0
VERTEX
  5
852
  8
PROFILE
 10
0.8359818378810312
 20
-0.9951379920141312
 30
0.0
  0
VERTEX
  5
853
  8
PROFILE
 10
0.8364221608823916
 20
-1.001068145158713
 30
0.0
  0
VERTEX
  5
854
  8
PROFILE
 10
0.8374097618158967
 20
-1.006643573877235
 30
0.0
  0
VERTEX
  5
855
  8
PROFILE
 10
0.8389128603343274
 20
-1.011846856600169
 30
0.0
  0
VERTEX
  5
856
  8
PROFILE
 10
0.8408996760904646
 20
-1.016660571757985
 30
0.0
  0
VERTEX
  5
857
  8
PROFILE
 10
0.8433384287370893
 20
-1.021067297781152
 30
0.0
  0
VERTEX
  5
858
  8
PROFILE
 10
0.8461973379269824
 20
-1.025049613100141
 30
0.0
  0
VERTEX
  5
859
  8
PROFILE
 10
0.8494446233129249
 20
-1.028590096145421
 30
0.0
  0
VERTEX
  5
85A
  8
PROFILE
 10
0.8530485045476979
 20
-1.031671325347465
 30
0.0
  0
VERTEX
  5
85B
  8
PROFILE
 10
0.8806485045476978
 20
-1.053271325347465
 30
0.0
  0
VERTEX
  5
85C
  8
PROFILE
 10
0.9007818378810312
 20
-1.037671325347465
 30
0.0
  0
VERTEX
  5
85D
  8
PROFILE
 10
0.9047664759315325
 20
-1.034092845147651
 30
0.0
  0
VERTEX
  5
85E
  8
PROFILE
 10
0.9083530790363644
 20
-1.030023541543101
 30
0.0
  0
VERTEX
  5
85F
  8
PROFILE
 10
0.9115023830420996
 20
-1.025512894836155
 30
0.0
  0
VERTEX
  5
860
  8
PROFILE
 10
0.9141751237953107
 20
-1.020610385329156
 30
0.0
  0
VERTEX
  5
861
  8
PROFILE
 10
0.9163320371425703
 20
-1.015365493324445
 30
0.0
  0
VERTEX
  5
862
  8
PROFILE
 10
0.9179338589304507
 20
-1.009827699124365
 30
0.0
  0
VERTEX
  5
863
  8
PROFILE
 10
0.9189413250055245
 20
-1.004046483031257
 30
0.0
  0
VERTEX
  5
864
  8
PROFILE
 10
0.9193151712143646
 20
-0.9980713253474645
 30
0.0
  0
VERTEX
  5
865
  8
PROFILE
 10
0.9191258653478007
 20
-0.994104250738561
 30
0.0
  0
VERTEX
  5
866
  8
PROFILE
 10
0.9185702348680815
 20
-0.9902517720288415
 30
0.0
  0
VERTEX
  5
867
  8
PROFILE
 10
0.9176667104551659
 20
-0.9865333922287354
 30
0.0
  0
VERTEX
  5
868
  8
PROFILE
 10
0.9164337227890129
 20
-0.9829686143486717
 30
0.0
  0
VERTEX
  5
869
  8
PROFILE
 10
0.9148897025495815
 20
-0.9795769413990797
 30
0.0
  0
VERTEX
  5
86A
  8
PROFILE
 10
0.9130530804168302
 20
-0.9763778763903886
 30
0.0
  0
VERTEX
  5
86B
  8
PROFILE
 10
0.9109422870707183
 20
-0.9733909223330278
 30
0.0
  0
VERTEX
  5
86C
  8
PROFILE
 10
0.9085757531912046
 20
-0.9706355822374264
 30
0.0
  0
VERTEX
  5
86D
  8
PROFILE
 10
0.905971909458248
 20
-0.9681313591140137
 30
0.0
  0
VERTEX
  5
86E
  8
PROFILE
 10
0.9031491865518074
 20
-0.9658977559732189
 30
0.0
  0
VERTEX
  5
86F
  8
PROFILE
 10
0.9001260151518417
 20
-0.9639542758254713
 30
0.0
  0
VERTEX
  5
870
  8
PROFILE
 10
0.8969208259383097
 20
-0.9623204216812002
 30
0.0
  0
VERTEX
  5
871
  8
PROFILE
 10
0.8935520495911704
 20
-0.9610156965508347
 30
0.0
  0
VERTEX
  5
872
  8
PROFILE
 10
0.8900381167903828
 20
-0.9600596034448041
 30
0.0
  0
VERTEX
  5
873
  8
PROFILE
 10
0.8863974582159055
 20
-0.9594716453735377
 30
0.0
  0
VERTEX
  5
874
  8
PROFILE
 10
0.8826485045476978
 20
-0.9592713253474645
 30
0.0
  0
VERTEX
  5
875
  8
PROFILE
 10
0.8781151712143646
 20
-0.9592713253474645
 30
0.0
  0
VERTEX
  5
876
  8
PROFILE
 10
0.8826485045476978
 20
-0.9592713253474645
 30
0.0
  0
VERTEX
  5
877
  8
PROFILE
 10
0.8873244722138625
 20
-0.9594716453735377
 30
0.0
  0
VERTEX
  5
878
  8
PROFILE
 10
0.8918653663631194
 20
-0.9600596034448041
 30
0.0
  0
VERTEX
  5
879
  8
PROFILE
 10
0.8962481989110109
 20
-0.9610156965508347
 30
0.0
  0
VERTEX
  5
87A
  8
PROFILE
 10
0.9004499817730792
 20
-0.9623204216812002
 30
0.0
  0
VERTEX
  5
87B
  8
PROFILE
 10
0.9044477268648664
 20
-0.9639542758254713
 30
0.0
  0
VERTEX
  5
87C
  8
PROFILE
 10
0.9082184461019146
 20
-0.9658977559732189
 30
0.0
  0
VERTEX
  5
87D
  8
PROFILE
 10
0.911739151399766
 20
-0.9681313591140137
 30
0.0
  0
VERTEX
  5
87E
  8
PROFILE
 10
0.9149868546739628
 20
-0.9706355822374264
 30
0.0
  0
VERTEX
  5
87F
  8
PROFILE
 10
0.9179385678400471
 20
-0.9733909223330278
 30
0.0
  0
VERTEX
  5
880
  8
PROFILE
 10
0.9205713028135613
 20
-0.9763778763903886
 30
0.0
  0
VERTEX
  5
881
  8
PROFILE
 10
0.9228620715100472
 20
-0.9795769413990797
 30
0.0
  0
VERTEX
  5
882
  8
PROFILE
 10
0.9247878858450472
 20
-0.9829686143486717
 30
0.0
  0
VERTEX
  5
883
  8
PROFILE
 10
0.9263257577341035
 20
-0.9865333922287354
 30
0.0
  0
VERTEX
  5
884
  8
PROFILE
 10
0.9274526990927581
 20
-0.9902517720288415
 30
0.0
  0
VERTEX
  5
885
  8
PROFILE
 10
0.9281457218365533
 20
-0.994104250738561
 30
0.0
  0
VERTEX
  5
886
  8
PROFILE
 10
0.9283818378810312
 20
-0.9980713253474645
 30
0.0
  0
VERTEX
  5
887
  8
PROFILE
 10
0.9283818378810312
 20
-0.9988713253474645
 30
0.0
  0
VERTEX
  5
888
  8
PROFILE
 10
0.9280113346366701
 20
-1.004250470991721
 30
0.0
  0
VERTEX
  5
889
  8
PROFILE
 10
0.9269246362813166
 20
-1.009460134844637
 30
0.0
  0
VERTEX
  5
88A
  8
PROFILE
 10
0.9251589598815664
 20
-1.014468989376512
 30
0.0
  0
VERTEX
  5
88B
  8
PROFILE
 10
0.9227515225040144
 20
-1.019245707057649
 30
0.0
  0
VERTEX
  5
88C
  8
PROFILE
 10
0.9197395412152563
 20
-1.023758960358345
 30
0.0
  0
VERTEX
  5
88D
  8
PROFILE
 10
0.9161602330818873
 20
-1.027977421748902
 30
0.0
  0
VERTEX
  5
88E
  8
PROFILE
 10
0.9120508151705027
 20
-1.031869763699619
 30
0.0
  0
VERTEX
  5
88F
  8
PROFILE
 10
0.9074485045476979
 20
-1.035404658680798
 30
0.0
  0
VERTEX
  5
890
  8
PROFILE
 10
0.8813151712143645
 20
-1.053271325347465
 30
0.0
  0
VERTEX
  5
891
  8
PROFILE
 10
0.9105151712143645
 20
-1.075671325347465
 30
0.0
  0
VERTEX
  5
892
  8
PROFILE
 10
0.9156560962185771
 20
-1.079385995808637
 30
0.0
  0
VERTEX
  5
893
  8
PROFILE
 10
0.92031629230899
 20
-1.083829641597361
 30
0.0
  0
VERTEX
  5
894
  8
PROFILE
 10
0.9244326584657105
 20
-1.088933298317313
 30
0.0
  0
VERTEX
  5
895
  8
PROFILE
 10
0.9279420936688465
 20
-1.094628001572167
 30
0.0
  0
VERTEX
  5
896
  8
PROFILE
 10
0.9307814968985055
 20
-1.1008447869656
 30
0.0
  0
VERTEX
  5
897
  8
PROFILE
 10
0.9328877671347953
 20
-1.107514690101287
 30
0.0
  0
VERTEX
  5
898
  8
PROFILE
 10
0.9341978033578235
 20
-1.114568746582906
 30
0.0
  0
VERTEX
  5
899
  8
PROFILE
 10
0.9346485045476979
 20
-1.121937992014131
 30
0.0
  0
VERTEX
  5
89A
  8
PROFILE
 10
0.9346485045476979
 20
-1.125671325347465
 30
0.0
  0
VERTEX
  5
89B
  8
PROFILE
 10
0.9343814111796004
 20
-1.130251865102075
 30
0.0
  0
VERTEX
  5
89C
  8
PROFILE
 10
0.9335974670845785
 20
-1.134700087942163
 30
0.0
  0
VERTEX
  5
89D
  8
PROFILE
 10
0.9323226762765376
 20
-1.138993474927853
 30
0.0
  0
VERTEX
  5
89E
  8
PROFILE
 10
0.9305830427693836
 20
-1.143109507119267
 30
0.0
  0
VERTEX
  5
89F
  8
PROFILE
 10
0.9284045705770221
 20
-1.147025665576528
 30
0.0
  0
VERTEX
  5
8A0
  8
PROFILE
 10
0.9258132637133587
 20
-1.150719431359759
 30
0.0
  0
VERTEX
  5
8A1
  8
PROFILE
 10
0.9228351261922989
 20
-1.154168285529082
 30
0.0
  0
VERTEX
  5
8A2
  8
PROFILE
 10
0.9194961620277486
 20
-1.157349709144622
 30
0.0
  0
VERTEX
  5
8A3
  8
PROFILE
 10
0.9158223752336134
 20
-1.160241183266501
 30
0.0
  0
VERTEX
  5
8A4
  8
PROFILE
 10
0.9118397698237991
 20
-1.162820188954841
 30
0.0
  0
VERTEX
  5
8A5
  8
PROFILE
 10
0.907574349812211
 20
-1.165064207269766
 30
0.0
  0
VERTEX
  5
8A6
  8
PROFILE
 10
0.903052119212755
 20
-1.166950719271399
 30
0.0
  0
VERTEX
  5
8A7
  8
PROFILE
 10
0.8982990820393366
 20
-1.168457206019862
 30
0.0
  0
VERTEX
  5
8A8
  8
PROFILE
 10
0.8933412423058616
 20
-1.169561148575279
 30
0.0
  0
VERTEX
  5
8A9
  8
PROFILE
 10
0.8882046040262357
 20
-1.170240027997772
 30
0.0
  0
VERTEX
  5
8AA
  8
PROFILE
 10
0.8829151712143645
 20
-1.170471325347465
 30
0.0
  0
VERTEX
  5
8AB
  8
PROFILE
 10
0.8791818378810312
 20
-1.170471325347465
 30
0.0
  0
VERTEX
  5
8AC
  8
PROFILE
 10
0.8837623776356414
 20
-1.170259302776913
 30
0.0
  0
VERTEX
  5
8AD
  8
PROFILE
 10
0.8882106004757299
 20
-1.169636996639627
 30
0.0
  0
VERTEX
  5
8AE
  8
PROFILE
 10
0.8925039874614196
 20
-1.168625049297162
 30
0.0
  0
VERTEX
  5
8AF
  8
PROFILE
 10
0.8966200196528333
 20
-1.167244103111071
 30
0.0
  0
VERTEX
  5
8B0
  8
PROFILE
 10
0.9005361781100942
 20
-1.165514800442907
 30
0.0
  0
VERTEX
  5
8B1
  8
PROFILE
 10
0.9042299438933251
 20
-1.163457783654226
 30
0.0
  0
VERTEX
  5
8B2
  8
PROFILE
 10
0.9076787980626488
 20
-1.161093695106581
 30
0.0
  0
VERTEX
  5
8B3
  8
PROFILE
 10
0.9108602216781887
 20
-1.158443177161526
 30
0.0
  0
VERTEX
  5
8B4
  8
PROFILE
 10
0.9137516958000673
 20
-1.155526872180614
 30
0.0
  0
VERTEX
  5
8B5
  8
PROFILE
 10
0.9163307014884076
 20
-1.152365422525401
 30
0.0
  0
VERTEX
  5
8B6
  8
PROFILE
 10
0.9185747198033326
 20
-1.148979470557439
 30
0.0
  0
VERTEX
  5
8B7
  8
PROFILE
 10
0.9204612318049652
 20
-1.145389658638283
 30
0.0
  0
VERTEX
  5
8B8
  8
PROFILE
 10
0.9219677185534285
 20
-1.141616629129487
 30
0.0
  0
VERTEX
  5
8B9
  8
PROFILE
 10
0.9230716611088453
 20
-1.137681024392605
 30
0.0
  0
VERTEX
  5
8BA
  8
PROFILE
 10
0.9237505405313385
 20
-1.13360348678919
 30
0.0
  0
VERTEX
  5
8BB
  8
PROFILE
 10
0.9239818378810312
 20
-1.129404658680798
 30
0.0
  0
VERTEX
  5
8BC
  8
PROFILE
 10
0.9236639998586748
 20
-1.123644720242536
 30
0.0
  0
VERTEX
  5
8BD
  8
PROFILE
 10
0.922736155137714
 20
-1.118105496691204
 30
0.0
  0
VERTEX
  5
8BE
  8
PROFILE
 10
0.9212368077373114
 20
-1.112832812264994
 30
0.0
  0
VERTEX
  5
8BF
  8
PROFILE
 10
0.9192044616766297
 20
-1.107872491202097
 30
0.0
  0
VERTEX
  5
8C0
  8
PROFILE
 10
0.9166776209748316
 20
-1.103270357740705
 30
0.0
  0
VERTEX
  5
8C1
  8
PROFILE
 10
0.9136947896510796
 20
-1.099072236119007
 30
0.0
  0
VERTEX
  5
8C2
  8
PROFILE
 10
0.9102944717245364
 20
-1.095323950575197
 30
0.0
  0
VERTEX
  5
8C3
  8
PROFILE
 10
0.9065151712143645
 20
-1.092071325347465
 30
0.0
  0
VERTEX
  5
8C4
  8
PROFILE
 10
0.8685151712143645
 20
-1.061537992014131
 30
0.0
  0
VERTEX
  5
8C5
  8
PROFILE
 10
0.8535818378810311
 20
-1.075671325347465
 30
0.0
  0
VERTEX
  5
8C6
  8
PROFILE
 10
0.849768044453712
 20
-1.079318487107327
 30
0.0
  0
VERTEX
  5
8C7
  8
PROFILE
 10
0.8463214966504542
 20
-1.083428723719726
 30
0.0
  0
VERTEX
  5
8C8
  8
PROFILE
 10
0.8432772088155108
 20
-1.087982807983176
 30
0.0
  0
VERTEX
  5
8C9
  8
PROFILE
 10
0.8406701952931348
 20
-1.092961512696188
 30
0.0
  0
VERTEX
  5
8CA
  8
PROFILE
 10
0.8385354704275791
 20
-1.098345610657277
 30
0.0
  0
VERTEX
  5
8CB
  8
PROFILE
 10
0.836908048563097
 20
-1.104115874664955
 30
0.0
  0
VERTEX
  5
8CC
  8
PROFILE
 10
0.8358229440439411
 20
-1.110253077517736
 30
0.0
  0
VERTEX
  5
8CD
  8
PROFILE
 10
0.8353151712143645
 20
-1.116737992014131
 30
0.0
  0
VERTEX
  5
8CE
  8
PROFILE
 10
0.8353151712143645
 20
-1.118204658680798
 30
0.0
  0
VERTEX
  5
8CF
  8
PROFILE
 10
0.8355361427895174
 20
-1.123548621727843
 30
0.0
  0
VERTEX
  5
8D0
  8
PROFILE
 10
0.836184715094935
 20
-1.128738215041279
 30
0.0
  0
VERTEX
  5
8D1
  8
PROFILE
 10
0.8372393745005564
 20
-1.133747166524584
 30
0.0
  0
VERTEX
  5
8D2
  8
PROFILE
 10
0.8386786073763204
 20
-1.138549204081234
 30
0.0
  0
VERTEX
  5
8D3
  8
PROFILE
 10
0.8404809000921659
 20
-1.143118055614705
 30
0.0
  0
VERTEX
  5
8D4
  8
PROFILE
 10
0.8426247390180317
 20
-1.147427449028474
 30
0.0
  0
VERTEX
  5
8D5
  8
PROFILE
 10
0.8450886105238569
 20
-1.151451112226018
 30
0.0
  0
VERTEX
  5
8D6
  8
PROFILE
 10
0.8478510009795801
 20
-1.155162773110815
 30
0.0
  0
VERTEX
  5
8D7
  8
PROFILE
 10
0.8508903967551404
 20
-1.15853615958634
 30
0.0
  0
VERTEX
  5
8D8
  8
PROFILE
 10
0.8541852842204767
 20
-1.16154499955607
 30
0.0
  0
VERTEX
  5
8D9
  8
PROFILE
 10
0.8577141497455276
 20
-1.164163020923483
 30
0.0
  0
VERTEX
  5
8DA
  8
PROFILE
 10
0.8614554797002322
 20
-1.166363951592054
 30
0.0
  0
VERTEX
  5
8DB
  8
PROFILE
 10
0.8653877604545293
 20
-1.168121519465262
 30
0.0
  0
VERTEX
  5
8DC
  8
PROFILE
 10
0.8694894783783578
 20
-1.169409452446581
 30
0.0
  0
VERTEX
  5
8DD
  8
PROFILE
 10
0.8737391198416565
 20
-1.17020147843949
 30
0.0
  0
VERTEX
  5
8DE
  8
PROFILE
 10
0.8781151712143646
 20
-1.170471325347465
 30
0.0
  0
VERTEX
  5
8DF
  8
PROFILE
 10
0.8789151712143645
 20
-1.170471325347465
 30
0.0
  0
VERTEX
  5
8E0
  8
PROFILE
 10
0.8781151712143646
 20
-1.170471325347465
 30
0.0
  0
VERTEX
  5
8E1
  8
PROFILE
 10
0.8726076174617975
 20
-1.170217311293784
 30
0.0
  0
VERTEX
  5
8E2
  8
PROFILE
 10
0.8672591590469293
 20
-1.169471756213725
 30
0.0
  0
VERTEX
  5
8E3
  8
PROFILE
 10
0.8620968723141358
 20
-1.168259390728758
 30
0.0
  0
VERTEX
  5
8E4
  8
PROFILE
 10
0.8571478336077929
 20
-1.166604945460356
 30
0.0
  0
VERTEX
  5
8E5
  8
PROFILE
 10
0.8524391192722769
 20
-1.164533151029992
 30
0.0
  0
VERTEX
  5
8E6
  8
PROFILE
 10
0.8479978056519635
 20
-1.162068738059137
 30
0.0
  0
VERTEX
  5
8E7
  8
PROFILE
 10
0.8438509690912288
 20
-1.159236437169263
 30
0.0
  0
VERTEX
  5
8E8
  8
PROFILE
 10
0.840025685934449
 20
-1.156060978981843
 30
0.0
  0
VERTEX
  5
8E9
  8
PROFILE
 10
0.8365490325259998
 20
-1.152567094118348
 30
0.0
  0
VERTEX
  5
8EA
  8
PROFILE
 10
0.8334480852102573
 20
-1.148779513200251
 30
0.0
  0
VERTEX
  5
8EB
  8
PROFILE
 10
0.8307499203315974
 20
-1.144722966849025
 30
0.0
  0
VERTEX
  5
8EC
  8
PROFILE
 10
0.8284816142343963
 20
-1.14042218568614
 30
0.0
  0
VERTEX
  5
8ED
  8
PROFILE
 10
0.8266702432630297
 20
-1.135901900333069
 30
0.0
  0
VERTEX
  5
8EE
  8
PROFILE
 10
0.8253428837618737
 20
-1.131186841411285
 30
0.0
  0
VERTEX
  5
8EF
  8
PROFILE
 10
0.8245266120753044
 20
-1.12630173954226
 30
0.0
  0
VERTEX
  5
8F0
  8
PROFILE
 10
0.8242485045476978
 20
-1.121271325347464
 30
0.0
  0
VERTEX
  5
8F1
  8
PROFILE
 10
0.8245075505774215
 20
-1.116457813953962
 30
0.0
  0
VERTEX
  5
8F2
  8
PROFILE
 10
0.8252652337924645
 20
-1.11180903433398
 30
0.0
  0
VERTEX
  5
8F3
  8
PROFILE
 10
0.8264923718816354
 20
-1.107356455561736
 30
0.0
  0
VERTEX
  5
8F4
  8
PROFILE
 10
0.8281597825337422
 20
-1.103131546711445
 30
0.0
  0
VERTEX
  5
8F5
  8
PROFILE
 10
0.8302382834375936
 20
-1.099165776857323
 30
0.0
  0
VERTEX
  5
8F6
  8
PROFILE
 10
0.8326986922819979
 20
-1.095490615073586
 30
0.0
  0
VERTEX
  5
8F7
  8
PROFILE
 10
0.8355118267557631
 20
-1.09213753043445
 30
0.0
  0
VERTEX
  5
8F8
  8
PROFILE
 10
0.8386485045476979
 20
-1.089137992014131
 30
0.0
  0
VERTEX
  5
8F9
  8
PROFILE
 10
0.8685151712143645
 20
-1.061537992014131
 30
0.0
  0
VERTEX
  5
8FA
  8
PROFILE
 10
0.8446485045476978
 20
-1.042071325347464
 30
0.0
  0
VERTEX
  5
8FB
  8
PROFILE
 10
0.840832238454761
 20
-1.03862095991147
 30
0.0
  0
VERTEX
  5
8FC
  8
PROFILE
 10
0.837372787629266
 20
-1.034671870250938
 30
0.0
  0
VERTEX
  5
8FD
  8
PROFILE
 10
0.8343083538793401
 20
-1.030247280207089
 30
0.0
  0
VERTEX
  5
8FE
  8
PROFILE
 10
0.8316771390131105
 20
-1.025370413621144
 30
0.0
  0
VERTEX
  5
8FF
  8
PROFILE
 10
0.8295173448387042
 20
-1.020064494334322
 30
0.0
  0
VERTEX
  5
900
  8
PROFILE
 10
0.8278671731642485
 20
-1.014352746187844
 30
0.0
  0
VERTEX
  5
901
  8
PROFILE
 10
0.8267648257978706
 20
-1.008258393022929
 30
0.0
  0
VERTEX
  5
902
  8
PROFILE
 10
0.8262485045476978
 20
-1.001804658680798
 30
0.0
  0
VERTEX
  5
903
  8
PROFILE
 10
0.8261151712143645
 20
-1.001804658680798
 30
0.0
  0
VERTEX
  5
904
  8
PROFILE
 10
0.8263815761974926
 20
-0.9974558724256768
 30
0.0
  0
VERTEX
  5
905
  8
PROFILE
 10
0.8271634998180429
 20
-0.9932327084792834
 30
0.0
  0
VERTEX
  5
906
  8
PROFILE
 10
0.8284350050827641
 20
-0.9891565464303697
 30
0.0
  0
VERTEX
  5
907
  8
PROFILE
 10
0.8301701549984049
 20
-0.9852487658676881
 30
0.0
  0
VERTEX
  5
908
  8
PROFILE
 10
0.832343012571714
 20
-0.9815307463799909
 30
0.0
  0
VERTEX
  5
909
  8
PROFILE
 10
0.83492764080944
 20
-0.9780238675560307
 30
0.0
  0
VERTEX
  5
90A
  8
PROFILE
 10
0.8378981027183321
 20
-0.9747495089845595
 30
0.0
  0
VERTEX
  5
90B
  8
PROFILE
 10
0.8412284613051386
 20
-0.9717290502543299
 30
0.0
  0
VERTEX
  5
90C
  8
PROFILE
 10
0.8448927795766086
 20
-0.9689838709540941
 30
0.0
  0
VERTEX
  5
90D
  8
PROFILE
 10
0.8488651205394904
 20
-0.9665353506726042
 30
0.0
  0
VERTEX
  5
90E
  8
PROFILE
 10
0.8531195472005331
 20
-0.9644048689986129
 30
0.0
  0
VERTEX
  5
90F
  8
PROFILE
 10
0.8576301225664853
 20
-0.9626138055208724
 30
0.0
  0
VERTEX
  5
910
  8
PROFILE
 10
0.8623709096440957
 20
-0.961183539828135
 30
0.0
  0
VERTEX
  5
911
  8
PROFILE
 10
0.8673159714401133
 20
-0.9601354515091529
 30
0.0
  0
VERTEX
  5
912
  8
PROFILE
 10
0.8724393709612867
 20
-0.9594909201526787
 30
0.0
  0
VERTEX
  5
913
  8
PROFILE
 10
0.8777151712143645
 20
-0.9592713253474645
 30
0.0
  0
SEQEND
  5
E62
  8
PROFILE
  0
POLYLINE
  5
137
  8
PROFILE
 66
     1
 10
0.0
 20
0.0
 30
0.0
  0
VERTEX
  5
914
  8
PROFILE
 10
0.9881151712143643
 20
-0.9719379920141311
 30
0.0
  0
VERTEX
  5
915
  8
PROFILE
 10
1.087315171214364
 20
-0.9719379920141311
 30
0.0
  0
VERTEX
  5
916
  8
PROFILE
 10
1.085848504547698
 20
-0.9771379920141312
 30
0.0
  0
VERTEX
  5
917
  8
PROFILE
 10
0.9858485045476977
 20
-0.9771379920141312
 30
0.0
  0
VERTEX
  5
918
  8
PROFILE
 10
0.9993151712143644
 20
-0.9771379920141312
 30
0.0
  0
VERTEX
  5
919
  8
PROFILE
 10
0.996188686701153
 20
-0.9773211961134086
 30
0.0
  0
VERTEX
  5
91A
  8
PROFILE
 10
0.9932278362999067
 20
-0.9778530251164159
 30
0.0
  0
VERTEX
  5
91B
  8
PROFILE
 10
0.990475015027959
 20
-0.978706804080915
 30
0.0
  0
VERTEX
  5
91C
  8
PROFILE
 10
0.9879726179026431
 20
-0.9798558580646681
 30
0.0
  0
VERTEX
  5
91D
  8
PROFILE
 10
0.9857630399412924
 20
-0.9812735121254375
 30
0.0
  0
VERTEX
  5
91E
  8
PROFILE
 10
0.9838886761612402
 20
-0.9829330913209852
 30
0.0
  0
VERTEX
  5
91F
  8
PROFILE
 10
0.9823919215798196
 20
-0.9848079207090735
 30
0.0
  0
VERTEX
  5
920
  8
PROFILE
 10
0.9813151712143644
 20
-0.9868713253474645
 30
0.0
  0
VERTEX
  5
921
  8
PROFILE
 10
0.9746485045476977
 20
-1.003271325347465
 30
0.0
  0
VERTEX
  5
922
  8
PROFILE
 10
0.989581837881031
 20
-0.9667379920141311
 30
0.0
  0
VERTEX
  5
923
  8
PROFILE
 10
1.093315171214364
 20
-0.9667379920141311
 30
0.0
  0
VERTEX
  5
924
  8
PROFILE
 10
1.093315171214364
 20
-0.9690046586807979
 30
0.0
  0
VERTEX
  5
925
  8
PROFILE
 10
1.030648504547698
 20
-1.163004658680798
 30
0.0
  0
VERTEX
  5
926
  8
PROFILE
 10
1.023848504547698
 20
-1.163004658680798
 30
0.0
  0
VERTEX
  5
927
  8
PROFILE
 10
1.085848504547698
 20
-0.9771379920141312
 30
0.0
  0
SEQEND
  5
E63
  8
PROFILE
  0
POLYLINE
  5
138
  8
PROFILE
 66
     1
 10
0.0
 20
0.0
 30
0.0
  0
VERTEX
  5
928
  8
PROFILE
 10
2.779335415897519
 20
0.3960060526529938
 30
0.0
  0
VERTEX
  5
929
  8
PROFILE
 10
2.779335415897519
 20
0.4049393859863271
 30
0.0
  0
VERTEX
  5
92A
  8
PROFILE
 10
2.781135794153009
 20
0.4047578924037781
 30
0.0
  0
VERTEX
  5
92B
  8
PROFILE
 10
2.782812672381777
 20
0.4042373603699687
 30
0.0
  0
VERTEX
  5
92C
  8
PROFILE
 10
2.784330127513065
 20
0.4034137129556551
 30
0.0
  0
VERTEX
  5
92D
  8
PROFILE
 10
2.785652236476118
 20
0.4023228732315936
 30
0.0
  0
VERTEX
  5
92E
  8
PROFILE
 10
2.78674307620018
 20
0.4010007642685405
 30
0.0
  0
VERTEX
  5
92F
  8
PROFILE
 10
2.787566723614494
 20
0.3994833091372519
 30
0.0
  0
VERTEX
  5
930
  8
PROFILE
 10
2.788087255648303
 20
0.3978064309084843
 30
0.0
  0
VERTEX
  5
931
  8
PROFILE
 10
2.788268749230852
 20
0.3960060526529938
 30
0.0
  0
VERTEX
  5
932
  8
PROFILE
 10
2.788087255648303
 20
0.3942056743975033
 30
0.0
  0
VERTEX
  5
933
  8
PROFILE
 10
2.787566723614494
 20
0.3925287961687356
 30
0.0
  0
VERTEX
  5
934
  8
PROFILE
 10
2.78674307620018
 20
0.3910113410374471
 30
0.0
  0
VERTEX
  5
935
  8
PROFILE
 10
2.785652236476118
 20
0.3896892320743939
 30
0.0
  0
VERTEX
  5
936
  8
PROFILE
 10
2.784330127513065
 20
0.3885983923503324
 30
0.0
  0
VERTEX
  5
937
  8
PROFILE
 10
2.782812672381777
 20
0.3877747449360188
 30
0.0
  0
VERTEX
  5
938
  8
PROFILE
 10
2.781135794153009
 20
0.3872542129022094
 30
0.0
  0
VERTEX
  5
939
  8
PROFILE
 10
2.779335415897519
 20
0.3870727193196604
 30
0.0
  0
VERTEX
  5
93A
  8
PROFILE
 10
2.777535037642028
 20
0.3872542129022094
 30
0.0
  0
VERTEX
  5
93B
  8
PROFILE
 10
2.775858159413261
 20
0.3877747449360188
 30
0.0
  0
VERTEX
  5
93C
  8
PROFILE
 10
2.774340704281972
 20
0.3885983923503324
 30
0.0
  0
VERTEX
  5
93D
  8
PROFILE
 10
2.773018595318919
 20
0.3896892320743939
 30
0.0
  0
VERTEX
  5
93E
  8
PROFILE
 10
2.771927755594858
 20
0.3910113410374471
 30
0.0
  0
VERTEX
  5
93F
  8
PROFILE
 10
2.771104108180544
 20
0.3925287961687356
 30
0.0
  0
VERTEX
  5
940
  8
PROFILE
 10
2.770583576146735
 20
0.3942056743975033
 30
0.0
  0
VERTEX
  5
941
  8
PROFILE
 10
2.770402082564186
 20
0.3960060526529938
 30
0.0
  0
VERTEX
  5
942
  8
PROFILE
 10
2.770583576146735
 20
0.3978064309084843
 30
0.0
  0
VERTEX
  5
943
  8
PROFILE
 10
2.771104108180544
 20
0.3994833091372519
 30
0.0
  0
VERTEX
  5
944
  8
PROFILE
 10
2.771927755594858
 20
0.4010007642685405
 30
0.0
  0
VERTEX
  5
945
  8
PROFILE
 10
2.773018595318919
 20
0.4023228732315936
 30
0.0
  0
VERTEX
  5
946
  8
PROFILE
 10
2.774340704281972
 20
0.4034137129556551
 30
0.0
  0
VERTEX
  5
947
  8
PROFILE
 10
2.775858159413261
 20
0.4042373603699687
 30
0.0
  0
VERTEX
  5
948
  8
PROFILE
 10
2.777535037642028
 20
0.4047578924037781
 30
0.0
  0
VERTEX
  5
949
  8
PROFILE
 10
2.779335415897519
 20
0.4049393859863271
 30
0.0
  0
SEQEND
  5
E64
  8
PROFILE
  0
POLYLINE
  5
139
  8
PROFILE
 66
     1
 10
0.0
 20
0.0
 30
0.0
  0
VERTEX
  5
94A
  8
PROFILE
 10
2.894135415897519
 20
0.5132060526529938
 30
0.0
  0
VERTEX
  5
94B
  8
PROFILE
 10
2.886387502882235
 20
0.5126946066230873
 30
0.0
  0
VERTEX
  5
94C
  8
PROFILE
 10
2.878958531663455
 20
0.5113001424552193
 30
0.0
  0
VERTEX
  5
94D
  8
PROFILE
 10
2.871917304630823
 20
0.5090824710321665
 30
0.0
  0
VERTEX
  5
94E
  8
PROFILE
 10
2.865332624173987
 20
0.5061014032367062
 30
0.0
  0
VERTEX
  5
94F
  8
PROFILE
 10
2.859273292682592
 20
0.502416749951615
 30
0.0
  0
VERTEX
  5
950
  8
PROFILE
 10
2.853808112546285
 20
0.4980883220596702
 30
0.0
  0
VERTEX
  5
951
  8
PROFILE
 10
2.849005886154711
 20
0.4931759304436486
 30
0.0
  0
VERTEX
  5
952
  8
PROFILE
 10
2.844935415897519
 20
0.4877393859863271
 30
0.0
  0
VERTEX
  5
953
  8
PROFILE
 10
2.844268749230852
 20
0.4758727193196604
 30
0.0
  0
VERTEX
  5
954
  8
PROFILE
 10
2.844268749230852
 20
0.4690727193196604
 30
0.0
  0
VERTEX
  5
955
  8
PROFILE
 10
2.844515879434839
 20
0.4603751468094184
 30
0.0
  0
VERTEX
  5
956
  8
PROFILE
 10
2.845241229770182
 20
0.4519288189166314
 30
0.0
  0
VERTEX
  5
957
  8
PROFILE
 10
2.846420739821951
 20
0.443776494818804
 30
0.0
  0
VERTEX
  5
958
  8
PROFILE
 10
2.84803034917522
 20
0.4359609336934409
 30
0.0
  0
VERTEX
  5
959
  8
PROFILE
 10
2.85004599741506
 20
0.4285248947180468
 30
0.0
  0
VERTEX
  5
95A
  8
PROFILE
 10
2.852443624126542
 20
0.4215111370701262
 30
0.0
  0
VERTEX
  5
95B
  8
PROFILE
 10
2.855199168894739
 20
0.414962419927184
 30
0.0
  0
VERTEX
  5
95C
  8
PROFILE
 10
2.858288571304723
 20
0.4089215024667246
 30
0.0
  0
VERTEX
  5
95D
  8
PROFILE
 10
2.861687770941564
 20
0.4034311438662528
 30
0.0
  0
VERTEX
  5
95E
  8
PROFILE
 10
2.865372707390335
 20
0.3985341033032732
 30
0.0
  0
VERTEX
  5
95F
  8
PROFILE
 10
2.869319320236109
 20
0.3942731399552906
 30
0.0
  0
VERTEX
  5
960
  8
PROFILE
 10
2.873503549063956
 20
0.3906910129998095
 30
0.0
  0
VERTEX
  5
961
  8
PROFILE
 10
2.877901333458949
 20
0.3878304816143346
 30
0.0
  0
VERTEX
  5
962
  8
PROFILE
 10
2.882488613006159
 20
0.3857343049763706
 30
0.0
  0
VERTEX
  5
963
  8
PROFILE
 10
2.887241327290658
 20
0.3844452422634221
 30
0.0
  0
VERTEX
  5
964
  8
PROFILE
 10
2.892135415897519
 20
0.3840060526529938
 30
0.0
  0
VERTEX
  5
965
  8
PROFILE
 10
2.896429671917466
 20
0.3842993046499256
 30
0.0
  0
VERTEX
  5
966
  8
PROFILE
 10
2.900599880830049
 20
0.3851600267748723
 30
0.0
  0
VERTEX
  5
967
  8
PROFILE
 10
2.904624931129133
 20
0.3865596682290615
 30
0.0
  0
VERTEX
  5
968
  8
PROFILE
 10
2.908483711308583
 20
0.3884696782137202
 30
0.0
  0
VERTEX
  5
969
  8
PROFILE
 10
2.912155109862265
 20
0.390861505930076
 30
0.0
  0
VERTEX
  5
96A
  8
PROFILE
 10
2.915618015284044
 20
0.3937066005793559
 30
0.0
  0
VERTEX
  5
96B
  8
PROFILE
 10
2.918851316067785
 20
0.3969764113627873
 30
0.0
  0
VERTEX
  5
96C
  8
PROFILE
 10
2.921833900707353
 20
0.4006423874815977
 30
0.0
  0
VERTEX
  5
96D
  8
PROFILE
 10
2.924544657696615
 20
0.4046759781370142
 30
0.0
  0
VERTEX
  5
96E
  8
PROFILE
 10
2.926962475529434
 20
0.409048632530264
 30
0.0
  0
VERTEX
  5
96F
  8
PROFILE
 10
2.929066242699676
 20
0.4137317998625746
 30
0.0
  0
VERTEX
  5
970
  8
PROFILE
 10
2.930834847701207
 20
0.4186969293351732
 30
0.0
  0
VERTEX
  5
971
  8
PROFILE
 10
2.932247179027891
 20
0.4239154701492871
 30
0.0
  0
VERTEX
  5
972
  8
PROFILE
 10
2.933282125173594
 20
0.4293588715061436
 30
0.0
  0
VERTEX
  5
973
  8
PROFILE
 10
2.933918574632182
 20
0.4349985826069701
 30
0.0
  0
VERTEX
  5
974
  8
PROFILE
 10
2.934135415897519
 20
0.4408060526529938
 30
0.0
  0
VERTEX
  5
975
  8
PROFILE
 10
2.934135415897519
 20
0.4460060526529938
 30
0.0
  0
VERTEX
  5
976
  8
PROFILE
 10
2.933926835251814
 20
0.4528768622849091
 30
0.0
  0
VERTEX
  5
977
  8
PROFILE
 10
2.933314631486887
 20
0.4595491965450418
 30
0.0
  0
VERTEX
  5
978
  8
PROFILE
 10
2.93231911186102
 20
0.4659892770235763
 30
0.0
  0
VERTEX
  5
979
  8
PROFILE
 10
2.930960583632495
 20
0.4721633253106969
 30
0.0
  0
VERTEX
  5
97A
  8
PROFILE
 10
2.929259354059594
 20
0.4780375629965882
 30
0.0
  0
VERTEX
  5
97B
  8
PROFILE
 10
2.927235730400599
 20
0.4835782116714346
 30
0.0
  0
VERTEX
  5
97C
  8
PROFILE
 10
2.924910019913792
 20
0.4887514929254203
 30
0.0
  0
VERTEX
  5
97D
  8
PROFILE
 10
2.922302529857455
 20
0.4935236283487299
 30
0.0
  0
VERTEX
  5
97E
  8
PROFILE
 10
2.91943356748987
 20
0.4978608395315477
 30
0.0
  0
VERTEX
  5
97F
  8
PROFILE
 10
2.916323440069319
 20
0.5017293480640581
 30
0.0
  0
VERTEX
  5
980
  8
PROFILE
 10
2.912992454854084
 20
0.5050953755364457
 30
0.0
  0
VERTEX
  5
981
  8
PROFILE
 10
2.909460919102447
 20
0.5079251435388947
 30
0.0
  0
VERTEX
  5
982
  8
PROFILE
 10
2.90574914007269
 20
0.5101848736615897
 30
0.0
  0
VERTEX
  5
983
  8
PROFILE
 10
2.901877425023095
 20
0.511840787494715
 30
0.0
  0
VERTEX
  5
984
  8
PROFILE
 10
2.897866081211944
 20
0.5128591066284548
 30
0.0
  0
VERTEX
  5
985
  8
PROFILE
 10
2.893735415897519
 20
0.5132060526529938
 30
0.0
  0
VERTEX
  5
986
  8
PROFILE
 10
2.896802082564185
 20
0.5132060526529938
 30
0.0
  0
VERTEX
  5
987
  8
PROFILE
 10
2.901464417671557
 20
0.5128514694306658
 30
0.0
  0
VERTEX
  5
988
  8
PROFILE
 10
2.905992073062361
 20
0.5118590808451919
 30
0.0
  0
VERTEX
  5
989
  8
PROFILE
 10
2.910362127672795
 20
0.5102609285188364
 30
0.0
  0
VERTEX
  5
98A
  8
PROFILE
 10
2.914551660439056
 20
0.5080890540738636
 30
0.0
  0
VERTEX
  5
98B
  8
PROFILE
 10
2.918537750297339
 20
0.5053754991325383
 30
0.0
  0
VERTEX
  5
98C
  8
PROFILE
 10
2.922297476183842
 20
0.5021523053171247
 30
0.0
  0
VERTEX
  5
98D
  8
PROFILE
 10
2.92580791703476
 20
0.4984515142498875
 30
0.0
  0
VERTEX
  5
98E
  8
PROFILE
 10
2.929046151786292
 20
0.4943051675530912
 30
0.0
  0
VERTEX
  5
98F
  8
PROFILE
 10
2.931989259374633
 20
0.4897453068490001
 30
0.0
  0
VERTEX
  5
990
  8
PROFILE
 10
2.934614318735979
 20
0.4848039737598788
 30
0.0
  0
VERTEX
  5
991
  8
PROFILE
 10
2.936898408806528
 20
0.4795132099079917
 30
0.0
  0
VERTEX
  5
992
  8
PROFILE
 10
2.938818608522475
 20
0.4739050569156034
 30
0.0
  0
VERTEX
  5
993
  8
PROFILE
 10
2.940351996820018
 20
0.4680115564049782
 30
0.0
  0
VERTEX
  5
994
  8
PROFILE
 10
2.941475652635353
 20
0.4618647499983808
 30
0.0
  0
VERTEX
  5
995
  8
PROFILE
 10
2.942166654904677
 20
0.4554966793180756
 30
0.0
  0
VERTEX
  5
996
  8
PROFILE
 10
2.942402082564185
 20
0.4489393859863271
 30
0.0
  0
VERTEX
  5
997
  8
PROFILE
 10
2.942402082564185
 20
0.4482727193196604
 30
0.0
  0
VERTEX
  5
998
  8
PROFILE
 10
2.942143249815719
 20
0.4417018259812017
 30
0.0
  0
VERTEX
  5
999
  8
PROFILE
 10
2.941383551414358
 20
0.4353207444070272
 30
0.0
  0
VERTEX
  5
99A
  8
PROFILE
 10
2.940148187126154
 20
0.4291617785525557
 30
0.0
  0
VERTEX
  5
99B
  8
PROFILE
 10
2.938462356717159
 20
0.4232572323732062
 30
0.0
  0
VERTEX
  5
99C
  8
PROFILE
 10
2.936351259953427
 20
0.4176394098243975
 30
0.0
  0
VERTEX
  5
99D
  8
PROFILE
 10
2.933840096601012
 20
0.4123406148615484
 30
0.0
  0
VERTEX
  5
99E
  8
PROFILE
 10
2.930954066425964
 20
0.4073931514400778
 30
0.0
  0
VERTEX
  5
99F
  8
PROFILE
 10
2.927718369194338
 20
0.4028293235154048
 30
0.0
  0
VERTEX
  5
9A0
  8
PROFILE
 10
2.924158204672186
 20
0.3986814350429481
 30
0.0
  0
VERTEX
  5
9A1
  8
PROFILE
 10
2.920298772625562
 20
0.3949817899781265
 30
0.0
  0
VERTEX
  5
9A2
  8
PROFILE
 10
2.916165272820518
 20
0.3917626922763591
 30
0.0
  0
VERTEX
  5
9A3
  8
PROFILE
 10
2.911782905023107
 20
0.3890564458930646
 30
0.0
  0
VERTEX
  5
9A4
  8
PROFILE
 10
2.907176868999382
 20
0.386895354783662
 30
0.0
  0
VERTEX
  5
9A5
  8
PROFILE
 10
2.902372364515396
 20
0.38531172290357
 30
0.0
  0
VERTEX
  5
9A6
  8
PROFILE
 10
2.897394591337202
 20
0.3843378542082077
 30
0.0
  0
VERTEX
  5
9A7
  8
PROFILE
 10
2.892268749230852
 20
0.3840060526529938
 30
0.0
  0
VERTEX
  5
9A8
  8
PROFILE
 10
2.886488544302416
 20
0.3844452422634221
 30
0.0
  0
VERTEX
  5
9A9
  8
PROFILE
 10
2.880875310718494
 20
0.3857343049763706
 30
0.0
  0
VERTEX
  5
9AA
  8
PROFILE
 10
2.875457465236553
 20
0.3878304816143346
 30
0.0
  0
VERTEX
  5
9AB
  8
PROFILE
 10
2.870263424614054
 20
0.3906910129998095
 30
0.0
  0
VERTEX
  5
9AC
  8
PROFILE
 10
2.865321605608463
 20
0.3942731399552906
 30
0.0
  0
VERTEX
  5
9AD
  8
PROFILE
 10
2.860660424977243
 20
0.3985341033032732
 30
0.0
  0
VERTEX
  5
9AE
  8
PROFILE
 10
2.856308299477858
 20
0.4034311438662528
 30
0.0
  0
VERTEX
  5
9AF
  8
PROFILE
 10
2.852293645867772
 20
0.4089215024667246
 30
0.0
  0
VERTEX
  5
9B0
  8
PROFILE
 10
2.848644880904449
 20
0.414962419927184
 30
0.0
  0
VERTEX
  5
9B1
  8
PROFILE
 10
2.845390421345353
 20
0.4215111370701262
 30
0.0
  0
VERTEX
  5
9B2
  8
PROFILE
 10
2.842558683947948
 20
0.4285248947180468
 30
0.0
  0
VERTEX
  5
9B3
  8
PROFILE
 10
2.840178085469697
 20
0.4359609336934409
 30
0.0
  0
VERTEX
  5
9B4
  8
PROFILE
 10
2.838277042668065
 20
0.443776494818804
 30
0.0
  0
VERTEX
  5
9B5
  8
PROFILE
 10
2.836883972300515
 20
0.4519288189166314
 30
0.0
  0
VERTEX
  5
9B6
  8
PROFILE
 10
2.836027291124512
 20
0.4603751468094184
 30
0.0
  0
VERTEX
  5
9B7
  8
PROFILE
 10
2.835735415897519
 20
0.4690727193196604
 30
0.0
  0
VERTEX
  5
9B8
  8
PROFILE
 10
2.835735415897519
 20
0.4758727193196604
 30
0.0
  0
VERTEX
  5
9B9
  8
PROFILE
 10
2.835602082564185
 20
0.4758727193196605
 30
0.0
  0
VERTEX
  5
9BA
  8
PROFILE
 10
2.836138078352879
 20
0.4871572070116125
 30
0.0
  0
VERTEX
  5
9BB
  8
PROFILE
 10
2.83771438350864
 20
0.4981212596126142
 30
0.0
  0
VERTEX
  5
9BC
  8
PROFILE
 10
2.840283474715992
 20
0.5087108897557182
 30
0.0
  0
VERTEX
  5
9BD
  8
PROFILE
 10
2.843797828659458
 20
0.518872110073977
 30
0.0
  0
VERTEX
  5
9BE
  8
PROFILE
 10
2.84820992202356
 20
0.5285509332004434
 30
0.0
  0
VERTEX
  5
9BF
  8
PROFILE
 10
2.853472231492821
 20
0.5376933717681702
 30
0.0
  0
VERTEX
  5
9C0
  8
PROFILE
 10
2.859537233751764
 20
0.5462454384102097
 30
0.0
  0
VERTEX
  5
9C1
  8
PROFILE
 10
2.866357405484912
 20
0.5541531457596147
 30
0.0
  0
VERTEX
  5
9C2
  8
PROFILE
 10
2.873885223376787
 20
0.5613625064494379
 30
0.0
  0
VERTEX
  5
9C3
  8
PROFILE
 10
2.882073164111912
 20
0.5678195331127316
 30
0.0
  0
VERTEX
  5
9C4
  8
PROFILE
 10
2.890873704374809
 20
0.5734702383825486
 30
0.0
  0
VERTEX
  5
9C5
  8
PROFILE
 10
2.900239320850003
 20
0.5782606348919418
 30
0.0
  0
VERTEX
  5
9C6
  8
PROFILE
 10
2.910122490222014
 20
0.5821367352739636
 30
0.0
  0
VERTEX
  5
9C7
  8
PROFILE
 10
2.920475689175366
 20
0.5850445521616667
 30
0.0
  0
VERTEX
  5
9C8
  8
PROFILE
 10
2.931251394394582
 20
0.5869300981881036
 30
0.0
  0
VERTEX
  5
9C9
  8
PROFILE
 10
2.942402082564185
 20
0.5877393859863271
 30
0.0
  0
VERTEX
  5
9CA
  8
PROFILE
 10
2.932873049510704
 20
0.5870266146857168
 30
0.0
  0
VERTEX
  5
9CB
  8
PROFILE
 10
2.923644579575171
 20
0.585382705233241
 30
0.0
  0
VERTEX
  5
9CC
  8
PROFILE
 10
2.914750953033838
 20
0.5828489806986027
 30
0.0
  0
VERTEX
  5
9CD
  8
PROFILE
 10
2.90622645016296
 20
0.5794667641515046
 30
0.0
  0
VERTEX
  5
9CE
  8
PROFILE
 10
2.898105351238791
 20
0.5752773786616497
 30
0.0
  0
VERTEX
  5
9CF
  8
PROFILE
 10
2.890421936537583
 20
0.570322147298741
 30
0.0
  0
VERTEX
  5
9D0
  8
PROFILE
 10
2.883210486335591
 20
0.5646423931324813
 30
0.0
  0
VERTEX
  5
9D1
  8
PROFILE
 10
2.876505280909067
 20
0.5582794392325735
 30
0.0
  0
VERTEX
  5
9D2
  8
PROFILE
 10
2.870340600534265
 20
0.5512746086687206
 30
0.0
  0
VERTEX
  5
9D3
  8
PROFILE
 10
2.86475072548744
 20
0.5436692245106253
 30
0.0
  0
VERTEX
  5
9D4
  8
PROFILE
 10
2.859769936044844
 20
0.5355046098279905
 30
0.0
  0
VERTEX
  5
9D5
  8
PROFILE
 10
2.855432512482731
 20
0.5268220876905192
 30
0.0
  0
VERTEX
  5
9D6
  8
PROFILE
 10
2.851772735077356
 20
0.5176629811679143
 30
0.0
  0
VERTEX
  5
9D7
  8
PROFILE
 10
2.84882488410497
 20
0.5080686133298788
 30
0.0
  0
VERTEX
  5
9D8
  8
PROFILE
 10
2.846623239841829
 20
0.4980803072461155
 30
0.0
  0
VERTEX
  5
9D9
  8
PROFILE
 10
2.845202082564185
 20
0.4877393859863271
 30
0.0
  0
VERTEX
  5
9DA
  8
PROFILE
 10
2.849278643168734
 20
0.4931643570997103
 30
0.0
  0
VERTEX
  5
9DB
  8
PROFILE
 10
2.854084363774049
 20
0.4980713163298018
 30
0.0
  0
VERTEX
  5
9DC
  8
PROFILE
 10
2.859550870007669
 20
0.5023990356496688
 30
0.0
  0
VERTEX
  5
9DD
  8
PROFILE
 10
2.865609787497132
 20
0.5060862870323788
 30
0.0
  0
VERTEX
  5
9DE
  8
PROFILE
 10
2.872192741869977
 20
0.5090718424509988
 30
0.0
  0
VERTEX
  5
9DF
  8
PROFILE
 10
2.879231358753742
 20
0.5112944738785965
 30
0.0
  0
VERTEX
  5
9E0
  8
PROFILE
 10
2.886657263775965
 20
0.5126929532882392
 30
0.0
  0
VERTEX
  5
9E1
  8
PROFILE
 10
2.894402082564185
 20
0.5132060526529938
 30
0.0
  0
VERTEX
  5
9E2
  8
PROFILE
 10
2.900268749230852
 20
0.5132060526529938
 30
0.0
  0
VERTEX
  5
9E3
  8
PROFILE
 10
2.905408223895995
 20
0.5128900839520744
 30
0.0
  0
VERTEX
  5
9E4
  8
PROFILE
 10
2.910399235832642
 20
0.5119626861695613
 30
0.0
  0
VERTEX
  5
9E5
  8
PROFILE
 10
2.915216518254086
 20
0.5104546217858223
 30
0.0
  0
VERTEX
  5
9E6
  8
PROFILE
 10
2.919834804373618
 20
0.5083966532812252
 30
0.0
  0
VERTEX
  5
9E7
  8
PROFILE
 10
2.924228827404533
 20
0.5058195431361375
 30
0.0
  0
VERTEX
  5
9E8
  8
PROFILE
 10
2.928373320560122
 20
0.5027540538309274
 30
0.0
  0
VERTEX
  5
9E9
  8
PROFILE
 10
2.932243017053679
 20
0.4992309478459626
 30
0.0
  0
VERTEX
  5
9EA
  8
PROFILE
 10
2.935812650098496
 20
0.4952809876616107
 30
0.0
  0
VERTEX
  5
9EB
  8
PROFILE
 10
2.939056952907865
 20
0.4909349357582394
 30
0.0
  0
VERTEX
  5
9EC
  8
PROFILE
 10
2.941950658695081
 20
0.4862235546162167
 30
0.0
  0
VERTEX
  5
9ED
  8
PROFILE
 10
2.944468500673434
 20
0.4811776067159101
 30
0.0
  0
VERTEX
  5
9EE
  8
PROFILE
 10
2.946585212056219
 20
0.4758278545376877
 30
0.0
  0
VERTEX
  5
9EF
  8
PROFILE
 10
2.948275526056727
 20
0.4702050605619171
 30
0.0
  0
VERTEX
  5
9F0
  8
PROFILE
 10
2.94951417588825
 20
0.464339987268966
 30
0.0
  0
VERTEX
  5
9F1
  8
PROFILE
 10
2.950275894764084
 20
0.4582633971392023
 30
0.0
  0
VERTEX
  5
9F2
  8
PROFILE
 10
2.950535415897519
 20
0.4520060526529938
 30
0.0
  0
VERTEX
  5
9F3
  8
PROFILE
 10
2.950535415897519
 20
0.4468060526529938
 30
0.0
  0
VERTEX
  5
9F4
  8
PROFILE
 10
2.950237345205802
 20
0.4403851174612634
 30
0.0
  0
VERTEX
  5
9F5
  8
PROFILE
 10
2.949362479759553
 20
0.434149662230068
 30
0.0
  0
VERTEX
  5
9F6
  8
PROFILE
 10
2.947939839502126
 20
0.4281312536876279
 30
0.0
  0
VERTEX
  5
9F7
  8
PROFILE
 10
2.945998444376874
 20
0.422361458562164
 30
0.0
  0
VERTEX
  5
9F8
  8
PROFILE
 10
2.943567314327151
 20
0.4168718435818966
 30
0.0
  0
VERTEX
  5
9F9
  8
PROFILE
 10
2.94067546929631
 20
0.4116939754750461
 30
0.0
  0
VERTEX
  5
9FA
  8
PROFILE
 10
2.937351929227705
 20
0.4068594209698332
 30
0.0
  0
VERTEX
  5
9FB
  8
PROFILE
 10
2.933625714064688
 20
0.4023997467944784
 30
0.0
  0
VERTEX
  5
9FC
  8
PROFILE
 10
2.929525843750615
 20
0.3983465196772022
 30
0.0
  0
VERTEX
  5
9FD
  8
PROFILE
 10
2.925081338228837
 20
0.3947313063462252
 30
0.0
  0
VERTEX
  5
9FE
  8
PROFILE
 10
2.92032121744271
 20
0.3915856735297677
 30
0.0
  0
VERTEX
  5
9FF
  8
PROFILE
 10
2.915274501335585
 20
0.3889411879560505
 30
0.0
  0
VERTEX
  5
A00
  8
PROFILE
 10
2.909970209850816
 20
0.386829416353294
 30
0.0
  0
VERTEX
  5
A01
  8
PROFILE
 10
2.904437362931758
 20
0.3852819254497186
 30
0.0
  0
VERTEX
  5
A02
  8
PROFILE
 10
2.898704980521763
 20
0.384330281973545
 30
0.0
  0
VERTEX
  5
A03
  8
PROFILE
 10
2.892802082564185
 20
0.3840060526529938
 30
0.0
  0
VERTEX
  5
A04
  8
PROFILE
 10
2.88621752411485
 20
0.3844452422634221
 30
0.0
  0
VERTEX
  5
A05
  8
PROFILE
 10
2.879822975917639
 20
0.3857343049763706
 30
0.0
  0
VERTEX
  5
A06
  8
PROFILE
 10
2.873650613636127
 20
0.3878304816143346
 30
0.0
  0
VERTEX
  5
A07
  8
PROFILE
 10
2.867732612933887
 20
0.3906910129998095
 30
0.0
  0
VERTEX
  5
A08
  8
PROFILE
 10
2.862101149474491
 20
0.3942731399552906
 30
0.0
  0
VERTEX
  5
A09
  8
PROFILE
 10
2.856788398921513
 20
0.3985341033032732
 30
0.0
  0
VERTEX
  5
A0A
  8
PROFILE
 10
2.851826536938527
 20
0.4034311438662528
 30
0.0
  0
VERTEX
  5
A0B
  8
PROFILE
 10
2.847247739189105
 20
0.4089215024667246
 30
0.0
  0
VERTEX
  5
A0C
  8
PROFILE
 10
2.843084181336821
 20
0.414962419927184
 30
0.0
  0
VERTEX
  5
A0D
  8
PROFILE
 10
2.839368039045248
 20
0.4215111370701262
 30
0.0
  0
VERTEX
  5
A0E
  8
PROFILE
 10
2.836131487977961
 20
0.4285248947180468
 30
0.0
  0
VERTEX
  5
A0F
  8
PROFILE
 10
2.83340670379853
 20
0.4359609336934409
 30
0.0
  0
VERTEX
  5
A10
  8
PROFILE
 10
2.831225862170531
 20
0.443776494818804
 30
0.0
  0
VERTEX
  5
A11
  8
PROFILE
 10
2.829621138757536
 20
0.4519288189166314
 30
0.0
  0
VERTEX
  5
A12
  8
PROFILE
 10
2.828624709223119
 20
0.4603751468094184
 30
0.0
  0
VERTEX
  5
A13
  8
PROFILE
 10
2.828268749230852
 20
0.4690727193196604
 30
0.0
  0
VERTEX
  5
A14
  8
PROFILE
 10
2.828268749230852
 20
0.4758727193196604
 30
0.0
  0
VERTEX
  5
A15
  8
PROFILE
 10
2.828848240323266
 20
0.4871572071630645
 30
0.0
  0
VERTEX
  5
A16
  8
PROFILE
 10
2.83055246042031
 20
0.4981212599059843
 30
0.0
  0
VERTEX
  5
A17
  8
PROFILE
 10
2.833330029751683
 20
0.508710890179188
 30
0.0
  0
VERTEX
  5
A18
  8
PROFILE
 10
2.837129568547087
 20
0.5188721106134442
 30
0.0
  0
VERTEX
  5
A19
  8
PROFILE
 10
2.841899697036224
 20
0.5285509338395213
 30
0.0
  0
VERTEX
  5
A1A
  8
PROFILE
 10
2.847589035448793
 20
0.5376933724881877
 30
0.0
  0
VERTEX
  5
A1B
  8
PROFILE
 10
2.854146204014497
 20
0.5462454391902121
 30
0.0
  0
VERTEX
  5
A1C
  8
PROFILE
 10
2.861519822963035
 20
0.5541531465763626
 30
0.0
  0
VERTEX
  5
A1D
  8
PROFILE
 10
2.86965851252411
 20
0.5613625072774078
 30
0.0
  0
VERTEX
  5
A1E
  8
PROFILE
 10
2.878510892927421
 20
0.5678195339241162
 30
0.0
  0
VERTEX
  5
A1F
  8
PROFILE
 10
2.88802558440267
 20
0.5734702391472564
 30
0.0
  0
VERTEX
  5
A20
  8
PROFILE
 10
2.898151207179558
 20
0.5782606355775964
 30
0.0
  0
VERTEX
  5
A21
  8
PROFILE
 10
2.908836381487786
 20
0.5821367358459051
 30
0.0
  0
VERTEX
  5
A22
  8
PROFILE
 10
2.920029727557055
 20
0.5850445525829508
 30
0.0
  0
VERTEX
  5
A23
  8
PROFILE
 10
2.931679865617066
 20
0.586930098419502
 30
0.0
  0
VERTEX
  5
A24
  8
PROFILE
 10
2.943735415897518
 20
0.5877393859863271
 30
0.0
  0
SEQEND
  5
E65
  8
PROFILE
  0
POLYLINE
  5
13A
  8
PROFILE
 66
     1
 10
0.0
 20
0.0
 30
0.0
  0
VERTEX
  5
A25
  8
PROFILE
 10
3.002535415897519
 20
0.4572060526529937
 30
0.0
  0
VERTEX
  5
A26
  8
PROFILE
 10
2.999430131790541
 20
0.4517871042289818
 30
0.0
  0
VERTEX
  5
A27
  8
PROFILE
 10
2.997035150847249
 20
0.4457732522466963
 30
0.0
  0
VERTEX
  5
A28
  8
PROFILE
 10
2.995423635762426
 20
0.4391424671342261
 30
0.0
  0
VERTEX
  5
A29
  8
PROFILE
 10
2.994668749230853
 20
0.4318727193196604
 30
0.0
  0
VERTEX
  5
A2A
  8
PROFILE
 10
2.994943479796739
 20
0.4266787144193435
 30
0.0
  0
VERTEX
  5
A2B
  8
PROFILE
 10
2.995701493343495
 20
0.4216347474488861
 30
0.0
  0
VERTEX
  5
A2C
  8
PROFILE
 10
2.996918522644767
 20
0.416766353277613
 30
0.0
  0
VERTEX
  5
A2D
  8
PROFILE
 10
2.998570300474198
 20
0.4120990667748491
 30
0.0
  0
VERTEX
  5
A2E
  8
PROFILE
 10
3.000632559605436
 20
0.4076584228099193
 30
0.0
  0
VERTEX
  5
A2F
  8
PROFILE
 10
3.003081032812125
 20
0.4034699562521486
 30
0.0
  0
VERTEX
  5
A30
  8
PROFILE
 10
3.005891452867911
 20
0.3995592019708618
 30
0.0
  0
VERTEX
  5
A31
  8
PROFILE
 10
3.009039552546441
 20
0.3959516948353837
 30
0.0
  0
VERTEX
  5
A32
  8
PROFILE
 10
3.012501064621357
 20
0.3926729697150393
 30
0.0
  0
VERTEX
  5
A33
  8
PROFILE
 10
3.016251721866308
 20
0.3897485614791534
 30
0.0
  0
VERTEX
  5
A34
  8
PROFILE
 10
3.020267257054936
 20
0.3872040049970509
 30
0.0
  0
VERTEX
  5
A35
  8
PROFILE
 10
3.024523402960889
 20
0.3850648351380567
 30
0.0
  0
VERTEX
  5
A36
  8
PROFILE
 10
3.028995892357812
 20
0.3833565867714956
 30
0.0
  0
VERTEX
  5
A37
  8
PROFILE
 10
3.03366045801935
 20
0.3821047947666927
 30
0.0
  0
VERTEX
  5
A38
  8
PROFILE
 10
3.038492832719148
 20
0.3813349939929727
 30
0.0
  0
VERTEX
  5
A39
  8
PROFILE
 10
3.043468749230853
 20
0.3810727193196604
 30
0.0
  0
VERTEX
  5
A3A
  8
PROFILE
 10
3.046402082564186
 20
0.3810727193196604
 30
0.0
  0
VERTEX
  5
A3B
  8
PROFILE
 10
3.051377966523807
 20
0.3812964444346905
 30
0.0
  0
VERTEX
  5
A3C
  8
PROFILE
 10
3.056210113359023
 20
0.381953098637995
 30
0.0
  0
VERTEX
  5
A3D
  8
PROFILE
 10
3.060874060530977
 20
0.3830209002168952
 30
0.0
  0
VERTEX
  5
A3E
  8
PROFILE
 10
3.065345345500816
 20
0.3844780674587123
 30
0.0
  0
VERTEX
  5
A3F
  8
PROFILE
 10
3.069599505729686
 20
0.3863028186507677
 30
0.0
  0
VERTEX
  5
A40
  8
PROFILE
 10
3.073612078678732
 20
0.3884733720803827
 30
0.0
  0
VERTEX
  5
A41
  8
PROFILE
 10
3.077358601809098
 20
0.3909679460348786
 30
0.0
  0
VERTEX
  5
A42
  8
PROFILE
 10
3.080814612581932
 20
0.3937647588015766
 30
0.0
  0
VERTEX
  5
A43
  8
PROFILE
 10
3.083955648458377
 20
0.3968420286677981
 30
0.0
  0
VERTEX
  5
A44
  8
PROFILE
 10
3.08675724689958
 20
0.4001779739208642
 30
0.0
  0
VERTEX
  5
A45
  8
PROFILE
 10
3.089194945366687
 20
0.4037508128480965
 30
0.0
  0
VERTEX
  5
A46
  8
PROFILE
 10
3.091244281320841
 20
0.4075387637368161
 30
0.0
  0
VERTEX
  5
A47
  8
PROFILE
 10
3.092880792223189
 20
0.4115200448743443
 30
0.0
  0
VERTEX
  5
A48
  8
PROFILE
 10
3.094080015534877
 20
0.4156728745480024
 30
0.0
  0
VERTEX
  5
A49
  8
PROFILE
 10
3.09481748871705
 20
0.4199754710451118
 30
0.0
  0
VERTEX
  5
A4A
  8
PROFILE
 10
3.095068749230853
 20
0.4244060526529937
 30
0.0
  0
VERTEX
  5
A4B
  8
PROFILE
 10
3.095068749230853
 20
0.4250727193196604
 30
0.0
  0
VERTEX
  5
A4C
  8
PROFILE
 10
3.094745829557612
 20
0.43107240301773
 30
0.0
  0
VERTEX
  5
A4D
  8
PROFILE
 10
3.093802072255935
 20
0.4368571446693005
 30
0.0
  0
VERTEX
  5
A4E
  8
PROFILE
 10
3.092274979902881
 20
0.4423844604836116
 30
0.0
  0
VERTEX
  5
A4F
  8
PROFILE
 10
3.090202055075515
 20
0.4476118666699028
 30
0.0
  0
VERTEX
  5
A50
  8
PROFILE
 10
3.0876208003509
 20
0.4524968794374138
 30
0.0
  0
VERTEX
  5
A51
  8
PROFILE
 10
3.084568718306098
 20
0.4569970149953839
 30
0.0
  0
VERTEX
  5
A52
  8
PROFILE
 10
3.081083311518173
 20
0.4610697895530529
 30
0.0
  0
VERTEX
  5
A53
  8
PROFILE
 10
3.077202082564186
 20
0.4646727193196604
 30
0.0
  0
VERTEX
  5
A54
  8
PROFILE
 10
3.014535415897519
 20
0.5146727193196604
 30
0.0
  0
VERTEX
  5
A55
  8
PROFILE
 10
3.010870562279889
 20
0.517891101345089
 30
0.0
  0
VERTEX
  5
A56
  8
PROFILE
 10
3.007584338472975
 20
0.5215825515861496
 30
0.0
  0
VERTEX
  5
A57
  8
PROFILE
 10
3.00470859913584
 20
0.5257031480266317
 30
0.0
  0
VERTEX
  5
A58
  8
PROFILE
 10
3.002275198927554
 20
0.5302089686503246
 30
0.0
  0
VERTEX
  5
A59
  8
PROFILE
 10
3.000315992507179
 20
0.535056091441018
 30
0.0
  0
VERTEX
  5
A5A
  8
PROFILE
 10
2.998862834533782
 20
0.540200594382501
 30
0.0
  0
VERTEX
  5
A5B
  8
PROFILE
 10
2.99794757966643
 20
0.5455985554585631
 30
0.0
  0
VERTEX
  5
A5C
  8
PROFILE
 10
2.997602082564186
 20
0.5512060526529938
 30
0.0
  0
VERTEX
  5
A5D
  8
PROFILE
 10
2.997602082564186
 20
0.5526727193196604
 30
0.0
  0
VERTEX
  5
A5E
  8
PROFILE
 10
2.997838198608664
 20
0.5567079892746147
 30
0.0
  0
VERTEX
  5
A5F
  8
PROFILE
 10
2.998531221352459
 20
0.5606268896411808
 30
0.0
  0
VERTEX
  5
A60
  8
PROFILE
 10
2.999658162711114
 20
0.5644097776181574
 30
0.0
  0
VERTEX
  5
A61
  8
PROFILE
 10
3.00119603460017
 20
0.5680370104043433
 30
0.0
  0
VERTEX
  5
A62
  8
PROFILE
 10
3.00312184893517
 20
0.5714889451985374
 30
0.0
  0
VERTEX
  5
A63
  8
PROFILE
 10
3.005412617631656
 20
0.5747459391995384
 30
0.0
  0
VERTEX
  5
A64
  8
PROFILE
 10
3.00804535260517
 20
0.5777883496061451
 30
0.0
  0
VERTEX
  5
A65
  8
PROFILE
 10
3.010997065771255
 20
0.5805965336171564
 30
0.0
  0
VERTEX
  5
A66
  8
PROFILE
 10
3.014244769045452
 20
0.5831508484313708
 30
0.0
  0
VERTEX
  5
A67
  8
PROFILE
 10
3.017765474343303
 20
0.5854316512475872
 30
0.0
  0
VERTEX
  5
A68
  8
PROFILE
 10
3.021536193580351
 20
0.5874192992646046
 30
0.0
  0
VERTEX
  5
A69
  8
PROFILE
 10
3.025533938672138
 20
0.5890941496812214
 30
0.0
  0
VERTEX
  5
A6A
  8
PROFILE
 10
3.029735721534206
 20
0.5904365596962367
 30
0.0
  0
VERTEX
  5
A6B
  8
PROFILE
 10
3.034118554082098
 20
0.5914268865084491
 30
0.0
  0
VERTEX
  5
A6C
  8
PROFILE
 10
3.038659448231355
 20
0.5920454873166574
 30
0.0
  0
VERTEX
  5
A6D
  8
PROFILE
 10
3.043335415897519
 20
0.5922727193196604
 30
0.0
  0
VERTEX
  5
A6E
  8
PROFILE
 10
3.039122955230333
 20
0.5920647620957984
 30
0.0
  0
VERTEX
  5
A6F
  8
PROFILE
 10
3.035032178868466
 20
0.5915027345727979
 30
0.0
  0
VERTEX
  5
A70
  8
PROFILE
 10
3.031083796194127
 20
0.5906044029735369
 30
0.0
  0
VERTEX
  5
A71
  8
PROFILE
 10
3.027298516589523
 20
0.5893875335208936
 30
0.0
  0
VERTEX
  5
A72
  8
PROFILE
 10
3.023697049436864
 20
0.587869892437746
 30
0.0
  0
VERTEX
  5
A73
  8
PROFILE
 10
3.020300104118357
 20
0.5860692459469725
 30
0.0
  0
VERTEX
  5
A74
  8
PROFILE
 10
3.017128390016211
 20
0.5840033602714512
 30
0.0
  0
VERTEX
  5
A75
  8
PROFILE
 10
3.014202616512634
 20
0.5816900016340598
 30
0.0
  0
VERTEX
  5
A76
  8
PROFILE
 10
3.011543492989835
 20
0.5791469362576769
 30
0.0
  0
VERTEX
  5
A77
  8
PROFILE
 10
3.009171728830021
 20
0.5763919303651805
 30
0.0
  0
VERTEX
  5
A78
  8
PROFILE
 10
3.007108033415403
 20
0.5734427501794488
 30
0.0
  0
VERTEX
  5
A79
  8
PROFILE
 10
3.005373116128188
 20
0.5703171619233598
 30
0.0
  0
VERTEX
  5
A7A
  8
PROFILE
 10
3.003987686350583
 20
0.5670329318197915
 30
0.0
  0
VERTEX
  5
A7B
  8
PROFILE
 10
3.002972453464798
 20
0.5636078260916224
 30
0.0
  0
VERTEX
  5
A7C
  8
PROFILE
 10
3.002348126853041
 20
0.5600596109617304
 30
0.0
  0
VERTEX
  5
A7D
  8
PROFILE
 10
3.00213541589752
 20
0.5564060526529937
 30
0.0
  0
VERTEX
  5
A7E
  8
PROFILE
 10
3.002268749230853
 20
0.5564060526529937
 30
0.0
  0
VERTEX
  5
A7F
  8
PROFILE
 10
3.002709072232213
 20
0.5504758995084122
 30
0.0
  0
VERTEX
  5
A80
  8
PROFILE
 10
3.003696673165718
 20
0.5449004707898897
 30
0.0
  0
VERTEX
  5
A81
  8
PROFILE
 10
3.005199771684149
 20
0.5396971880669558
 30
0.0
  0
VERTEX
  5
A82
  8
PROFILE
 10
3.007186587440287
 20
0.5348834729091404
 30
0.0
  0
VERTEX
  5
A83
  8
PROFILE
 10
3.009625340086911
 20
0.5304767468859733
 30
0.0
  0
VERTEX
  5
A84
  8
PROFILE
 10
3.012484249276804
 20
0.5264944315669844
 30
0.0
  0
VERTEX
  5
A85
  8
PROFILE
 10
3.015731534662746
 20
0.5229539485217034
 30
0.0
  0
VERTEX
  5
A86
  8
PROFILE
 10
3.019335415897519
 20
0.5198727193196604
 30
0.0
  0
VERTEX
  5
A87
  8
PROFILE
 10
3.046935415897519
 20
0.4982727193196604
 30
0.0
  0
VERTEX
  5
A88
  8
PROFILE
 10
3.067068749230853
 20
0.5138727193196604
 30
0.0
  0
VERTEX
  5
A89
  8
PROFILE
 10
3.071053387281354
 20
0.5174511995194735
 30
0.0
  0
VERTEX
  5
A8A
  8
PROFILE
 10
3.074639990386186
 20
0.5215205031240241
 30
0.0
  0
VERTEX
  5
A8B
  8
PROFILE
 10
3.077789294391921
 20
0.52603114983097
 30
0.0
  0
VERTEX
  5
A8C
  8
PROFILE
 10
3.080462035145132
 20
0.5309336593379692
 30
0.0
  0
VERTEX
  5
A8D
  8
PROFILE
 10
3.082618948492392
 20
0.5361785513426798
 30
0.0
  0
VERTEX
  5
A8E
  8
PROFILE
 10
3.084220770280272
 20
0.5417163455427598
 30
0.0
  0
VERTEX
  5
A8F
  8
PROFILE
 10
3.085228236355346
 20
0.5474975616358675
 30
0.0
  0
VERTEX
  5
A90
  8
PROFILE
 10
3.085602082564186
 20
0.5534727193196605
 30
0.0
  0
VERTEX
  5
A91
  8
PROFILE
 10
3.085412776697622
 20
0.5574397939285639
 30
0.0
  0
VERTEX
  5
A92
  8
PROFILE
 10
3.084857146217904
 20
0.5612922726382834
 30
0.0
  0
VERTEX
  5
A93
  8
PROFILE
 10
3.083953621804988
 20
0.5650106524383895
 30
0.0
  0
VERTEX
  5
A94
  8
PROFILE
 10
3.082720634138835
 20
0.5685754303184533
 30
0.0
  0
VERTEX
  5
A95
  8
PROFILE
 10
3.081176613899403
 20
0.5719671032680452
 30
0.0
  0
VERTEX
  5
A96
  8
PROFILE
 10
3.079339991766652
 20
0.5751661682767363
 30
0.0
  0
VERTEX
  5
A97
  8
PROFILE
 10
3.07722919842054
 20
0.5781531223340971
 30
0.0
  0
VERTEX
  5
A98
  8
PROFILE
 10
3.074862664541027
 20
0.5809084624296985
 30
0.0
  0
VERTEX
  5
A99
  8
PROFILE
 10
3.07225882080807
 20
0.5834126855531112
 30
0.0
  0
VERTEX
  5
A9A
  8
PROFILE
 10
3.06943609790163
 20
0.585646288693906
 30
0.0
  0
VERTEX
  5
A9B
  8
PROFILE
 10
3.066412926501664
 20
0.5875897688416536
 30
0.0
  0
VERTEX
  5
A9C
  8
PROFILE
 10
3.063207737288132
 20
0.5892236229859247
 30
0.0
  0
VERTEX
  5
A9D
  8
PROFILE
 10
3.059838960940992
 20
0.5905283481162902
 30
0.0
  0
VERTEX
  5
A9E
  8
PROFILE
 10
3.056325028140205
 20
0.5914844412223208
 30
0.0
  0
VERTEX
  5
A9F
  8
PROFILE
 10
3.052684369565728
 20
0.5920723992935872
 30
0.0
  0
VERTEX
  5
AA0
  8
PROFILE
 10
3.04893541589752
 20
0.5922727193196604
 30
0.0
  0
VERTEX
  5
AA1
  8
PROFILE
 10
3.044402082564186
 20
0.5922727193196604
 30
0.0
  0
VERTEX
  5
AA2
  8
PROFILE
 10
3.04893541589752
 20
0.5922727193196604
 30
0.0
  0
VERTEX
  5
AA3
  8
PROFILE
 10
3.053611383563684
 20
0.5920723992935872
 30
0.0
  0
VERTEX
  5
AA4
  8
PROFILE
 10
3.058152277712941
 20
0.5914844412223208
 30
0.0
  0
VERTEX
  5
AA5
  8
PROFILE
 10
3.062535110260833
 20
0.5905283481162902
 30
0.0
  0
VERTEX
  5
AA6
  8
PROFILE
 10
3.066736893122901
 20
0.5892236229859247
 30
0.0
  0
VERTEX
  5
AA7
  8
PROFILE
 10
3.070734638214688
 20
0.5875897688416536
 30
0.0
  0
VERTEX
  5
AA8
  8
PROFILE
 10
3.074505357451736
 20
0.585646288693906
 30
0.0
  0
VERTEX
  5
AA9
  8
PROFILE
 10
3.078026062749587
 20
0.5834126855531112
 30
0.0
  0
VERTEX
  5
AAA
  8
PROFILE
 10
3.081273766023784
 20
0.5809084624296985
 30
0.0
  0
VERTEX
  5
AAB
  8
PROFILE
 10
3.084225479189869
 20
0.5781531223340971
 30
0.0
  0
VERTEX
  5
AAC
  8
PROFILE
 10
3.086858214163383
 20
0.5751661682767363
 30
0.0
  0
VERTEX
  5
AAD
  8
PROFILE
 10
3.089148982859869
 20
0.5719671032680452
 30
0.0
  0
VERTEX
  5
AAE
  8
PROFILE
 10
3.091074797194869
 20
0.5685754303184533
 30
0.0
  0
VERTEX
  5
AAF
  8
PROFILE
 10
3.092612669083925
 20
0.5650106524383895
 30
0.0
  0
VERTEX
  5
AB0
  8
PROFILE
 10
3.09373961044258
 20
0.5612922726382834
 30
0.0
  0
VERTEX
  5
AB1
  8
PROFILE
 10
3.094432633186375
 20
0.5574397939285639
 30
0.0
  0
VERTEX
  5
AB2
  8
PROFILE
 10
3.094668749230853
 20
0.5534727193196605
 30
0.0
  0
VERTEX
  5
AB3
  8
PROFILE
 10
3.094668749230853
 20
0.5526727193196604
 30
0.0
  0
VERTEX
  5
AB4
  8
PROFILE
 10
3.094298245986492
 20
0.5472935736754041
 30
0.0
  0
VERTEX
  5
AB5
  8
PROFILE
 10
3.093211547631138
 20
0.5420839098224881
 30
0.0
  0
VERTEX
  5
AB6
  8
PROFILE
 10
3.091445871231388
 20
0.5370750552906123
 30
0.0
  0
VERTEX
  5
AB7
  8
PROFILE
 10
3.089038433853836
 20
0.5322983376094763
 30
0.0
  0
VERTEX
  5
AB8
  8
PROFILE
 10
3.086026452565078
 20
0.52778508430878
 30
0.0
  0
VERTEX
  5
AB9
  8
PROFILE
 10
3.082447144431709
 20
0.5235666229182232
 30
0.0
  0
VERTEX
  5
ABA
  8
PROFILE
 10
3.078337726520325
 20
0.5196742809675057
 30
0.0
  0
VERTEX
  5
ABB
  8
PROFILE
 10
3.07373541589752
 20
0.5161393859863271
 30
0.0
  0
VERTEX
  5
ABC
  8
PROFILE
 10
3.047602082564186
 20
0.4982727193196604
 30
0.0
  0
VERTEX
  5
ABD
  8
PROFILE
 10
3.076802082564186
 20
0.4758727193196604
 30
0.0
  0
VERTEX
  5
ABE
  8
PROFILE
 10
3.081943007568399
 20
0.4721580488584876
 30
0.0
  0
VERTEX
  5
ABF
  8
PROFILE
 10
3.086603203658812
 20
0.4677144030697636
 30
0.0
  0
VERTEX
  5
AC0
  8
PROFILE
 10
3.090719569815533
 20
0.4626107463498126
 30
0.0
  0
VERTEX
  5
AC1
  8
PROFILE
 10
3.094229005018668
 20
0.4569160430949585
 30
0.0
  0
VERTEX
  5
AC2
  8
PROFILE
 10
3.097068408248327
 20
0.4506992577015254
 30
0.0
  0
VERTEX
  5
AC3
  8
PROFILE
 10
3.099174678484617
 20
0.4440293545658376
 30
0.0
  0
VERTEX
  5
AC4
  8
PROFILE
 10
3.100484714707646
 20
0.436975298084219
 30
0.0
  0
VERTEX
  5
AC5
  8
PROFILE
 10
3.10093541589752
 20
0.4296060526529938
 30
0.0
  0
VERTEX
  5
AC6
  8
PROFILE
 10
3.10093541589752
 20
0.4258727193196604
 30
0.0
  0
VERTEX
  5
AC7
  8
PROFILE
 10
3.100668322529422
 20
0.4212921795650502
 30
0.0
  0
VERTEX
  5
AC8
  8
PROFILE
 10
3.0998843784344
 20
0.4168439567249618
 30
0.0
  0
VERTEX
  5
AC9
  8
PROFILE
 10
3.098609587626359
 20
0.4125505697392721
 30
0.0
  0
VERTEX
  5
ACA
  8
PROFILE
 10
3.096869954119205
 20
0.4084345375478583
 30
0.0
  0
VERTEX
  5
ACB
  8
PROFILE
 10
3.094691481926844
 20
0.4045183790905974
 30
0.0
  0
VERTEX
  5
ACC
  8
PROFILE
 10
3.09210017506318
 20
0.4008246133073665
 30
0.0
  0
VERTEX
  5
ACD
  8
PROFILE
 10
3.08912203754212
 20
0.3973757591380427
 30
0.0
  0
VERTEX
  5
ACE
  8
PROFILE
 10
3.08578307337757
 20
0.394194335522503
 30
0.0
  0
VERTEX
  5
ACF
  8
PROFILE
 10
3.082109286583436
 20
0.3913028614006244
 30
0.0
  0
VERTEX
  5
AD0
  8
PROFILE
 10
3.078126681173621
 20
0.3887238557122841
 30
0.0
  0
VERTEX
  5
AD1
  8
PROFILE
 10
3.073861261162033
 20
0.386479837397359
 30
0.0
  0
VERTEX
  5
AD2
  8
PROFILE
 10
3.069339030562577
 20
0.3845933253957264
 30
0.0
  0
VERTEX
  5
AD3
  8
PROFILE
 10
3.064585993389158
 20
0.3830868386472631
 30
0.0
  0
VERTEX
  5
AD4
  8
PROFILE
 10
3.059628153655683
 20
0.3819828960918463
 30
0.0
  0
VERTEX
  5
AD5
  8
PROFILE
 10
3.054491515376057
 20
0.3813040166693531
 30
0.0
  0
VERTEX
  5
AD6
  8
PROFILE
 10
3.049202082564186
 20
0.3810727193196604
 30
0.0
  0
VERTEX
  5
AD7
  8
PROFILE
 10
3.045468749230853
 20
0.3810727193196604
 30
0.0
  0
VERTEX
  5
AD8
  8
PROFILE
 10
3.050049288985463
 20
0.381284741890212
 30
0.0
  0
VERTEX
  5
AD9
  8
PROFILE
 10
3.054497511825552
 20
0.3819070480274974
 30
0.0
  0
VERTEX
  5
ADA
  8
PROFILE
 10
3.058790898811242
 20
0.3829189953699629
 30
0.0
  0
VERTEX
  5
ADB
  8
PROFILE
 10
3.062906931002655
 20
0.3842999415560542
 30
0.0
  0
VERTEX
  5
ADC
  8
PROFILE
 10
3.066823089459916
 20
0.3860292442242175
 30
0.0
  0
VERTEX
  5
ADD
  8
PROFILE
 10
3.070516855243147
 20
0.3880862610128988
 30
0.0
  0
VERTEX
  5
ADE
  8
PROFILE
 10
3.07396570941247
 20
0.3904503495605441
 30
0.0
  0
VERTEX
  5
ADF
  8
PROFILE
 10
3.07714713302801
 20
0.3931008675055995
 30
0.0
  0
VERTEX
  5
AE0
  8
PROFILE
 10
3.080038607149889
 20
0.3960171724865109
 30
0.0
  0
VERTEX
  5
AE1
  8
PROFILE
 10
3.082617612838229
 20
0.3991786221417244
 30
0.0
  0
VERTEX
  5
AE2
  8
PROFILE
 10
3.084861631153154
 20
0.402564574109686
 30
0.0
  0
VERTEX
  5
AE3
  8
PROFILE
 10
3.086748143154787
 20
0.4061543860288419
 30
0.0
  0
VERTEX
  5
AE4
  8
PROFILE
 10
3.088254629903251
 20
0.4099274155376378
 30
0.0
  0
VERTEX
  5
AE5
  8
PROFILE
 10
3.089358572458667
 20
0.41386302027452
 30
0.0
  0
VERTEX
  5
AE6
  8
PROFILE
 10
3.09003745188116
 20
0.4179405578779344
 30
0.0
  0
VERTEX
  5
AE7
  8
PROFILE
 10
3.090268749230853
 20
0.4221393859863271
 30
0.0
  0
VERTEX
  5
AE8
  8
PROFILE
 10
3.089950911208496
 20
0.4278993244245892
 30
0.0
  0
VERTEX
  5
AE9
  8
PROFILE
 10
3.089023066487536
 20
0.4334385479759208
 30
0.0
  0
VERTEX
  5
AEA
  8
PROFILE
 10
3.087523719087133
 20
0.4387112324021307
 30
0.0
  0
VERTEX
  5
AEB
  8
PROFILE
 10
3.085491373026452
 20
0.4436715534650277
 30
0.0
  0
VERTEX
  5
AEC
  8
PROFILE
 10
3.082964532324653
 20
0.4482736869264204
 30
0.0
  0
VERTEX
  5
AED
  8
PROFILE
 10
3.079981701000901
 20
0.4524718085481176
 30
0.0
  0
VERTEX
  5
AEE
  8
PROFILE
 10
3.076581383074358
 20
0.4562200940919281
 30
0.0
  0
VERTEX
  5
AEF
  8
PROFILE
 10
3.072802082564186
 20
0.4594727193196604
 30
0.0
  0
VERTEX
  5
AF0
  8
PROFILE
 10
3.034802082564186
 20
0.4900060526529937
 30
0.0
  0
VERTEX
  5
AF1
  8
PROFILE
 10
3.019868749230853
 20
0.4758727193196604
 30
0.0
  0
VERTEX
  5
AF2
  8
PROFILE
 10
3.016054955803534
 20
0.4722255575597982
 30
0.0
  0
VERTEX
  5
AF3
  8
PROFILE
 10
3.012608408000276
 20
0.4681153209473987
 30
0.0
  0
VERTEX
  5
AF4
  8
PROFILE
 10
3.009564120165333
 20
0.4635612366839492
 30
0.0
  0
VERTEX
  5
AF5
  8
PROFILE
 10
3.006957106642957
 20
0.4585825319709365
 30
0.0
  0
VERTEX
  5
AF6
  8
PROFILE
 10
3.004822381777401
 20
0.4531984340098476
 30
0.0
  0
VERTEX
  5
AF7
  8
PROFILE
 10
3.003194959912919
 20
0.4474281700021695
 30
0.0
  0
VERTEX
  5
AF8
  8
PROFILE
 10
3.002109855393763
 20
0.4412909671493892
 30
0.0
  0
VERTEX
  5
AF9
  8
PROFILE
 10
3.001602082564186
 20
0.4348060526529938
 30
0.0
  0
VERTEX
  5
AFA
  8
PROFILE
 10
3.001602082564186
 20
0.4333393859863271
 30
0.0
  0
VERTEX
  5
AFB
  8
PROFILE
 10
3.001823054139339
 20
0.4279954229392818
 30
0.0
  0
VERTEX
  5
AFC
  8
PROFILE
 10
3.002471626444756
 20
0.4228058296258453
 30
0.0
  0
VERTEX
  5
AFD
  8
PROFILE
 10
3.003526285850378
 20
0.4177968781425407
 30
0.0
  0
VERTEX
  5
AFE
  8
PROFILE
 10
3.004965518726142
 20
0.4129948405858913
 30
0.0
  0
VERTEX
  5
AFF
  8
PROFILE
 10
3.006767811441987
 20
0.4084259890524202
 30
0.0
  0
VERTEX
  5
B00
  8
PROFILE
 10
3.008911650367853
 20
0.4041165956386509
 30
0.0
  0
VERTEX
  5
B01
  8
PROFILE
 10
3.011375521873679
 20
0.4000929324411064
 30
0.0
  0
VERTEX
  5
B02
  8
PROFILE
 10
3.014137912329402
 20
0.39638127155631
 30
0.0
  0
VERTEX
  5
B03
  8
PROFILE
 10
3.017177308104962
 20
0.393007885080785
 30
0.0
  0
VERTEX
  5
B04
  8
PROFILE
 10
3.020472195570298
 20
0.3899990451110547
 30
0.0
  0
VERTEX
  5
B05
  8
PROFILE
 10
3.02400106109535
 20
0.3873810237436421
 30
0.0
  0
VERTEX
  5
B06
  8
PROFILE
 10
3.027742391050054
 20
0.3851800930750706
 30
0.0
  0
VERTEX
  5
B07
  8
PROFILE
 10
3.031674671804351
 20
0.3834225252018635
 30
0.0
  0
VERTEX
  5
B08
  8
PROFILE
 10
3.03577638972818
 20
0.3821345922205439
 30
0.0
  0
VERTEX
  5
B09
  8
PROFILE
 10
3.040026031191479
 20
0.3813425662276352
 30
0.0
  0
VERTEX
  5
B0A
  8
PROFILE
 10
3.044402082564186
 20
0.3810727193196604
 30
0.0
  0
VERTEX
  5
B0B
  8
PROFILE
 10
3.045202082564186
 20
0.3810727193196604
 30
0.0
  0
VERTEX
  5
B0C
  8
PROFILE
 10
3.044402082564186
 20
0.3810727193196604
 30
0.0
  0
VERTEX
  5
B0D
  8
PROFILE
 10
3.038894528811619
 20
0.3813267333733407
 30
0.0
  0
VERTEX
  5
B0E
  8
PROFILE
 10
3.033546070396751
 20
0.3820722884534003
 30
0.0
  0
VERTEX
  5
B0F
  8
PROFILE
 10
3.028383783663958
 20
0.383284653938367
 30
0.0
  0
VERTEX
  5
B10
  8
PROFILE
 10
3.023434744957615
 20
0.3849390992067686
 30
0.0
  0
VERTEX
  5
B11
  8
PROFILE
 10
3.018726030622099
 20
0.3870108936371331
 30
0.0
  0
VERTEX
  5
B12
  8
PROFILE
 10
3.014284717001785
 20
0.3894753066079882
 30
0.0
  0
VERTEX
  5
B13
  8
PROFILE
 10
3.010137880441051
 20
0.392307607497862
 30
0.0
  0
VERTEX
  5
B14
  8
PROFILE
 10
3.006312597284271
 20
0.3954830656852822
 30
0.0
  0
VERTEX
  5
B15
  8
PROFILE
 10
3.002835943875821
 20
0.3989769505487767
 30
0.0
  0
VERTEX
  5
B16
  8
PROFILE
 10
2.999734996560079
 20
0.4027645314668734
 30
0.0
  0
VERTEX
  5
B17
  8
PROFILE
 10
2.997036831681419
 20
0.4068210778181002
 30
0.0
  0
VERTEX
  5
B18
  8
PROFILE
 10
2.994768525584218
 20
0.4111218589809849
 30
0.0
  0
VERTEX
  5
B19
  8
PROFILE
 10
2.992957154612851
 20
0.4156421443340554
 30
0.0
  0
VERTEX
  5
B1A
  8
PROFILE
 10
2.991629795111695
 20
0.4203572032558396
 30
0.0
  0
VERTEX
  5
B1B
  8
PROFILE
 10
2.990813523425127
 20
0.4252423051248653
 30
0.0
  0
VERTEX
  5
B1C
  8
PROFILE
 10
2.990535415897519
 20
0.4302727193196604
 30
0.0
  0
VERTEX
  5
B1D
  8
PROFILE
 10
2.990794461927243
 20
0.4350862307131631
 30
0.0
  0
VERTEX
  5
B1E
  8
PROFILE
 10
2.991552145142286
 20
0.4397350103331447
 30
0.0
  0
VERTEX
  5
B1F
  8
PROFILE
 10
2.992779283231457
 20
0.444187589105389
 30
0.0
  0
VERTEX
  5
B20
  8
PROFILE
 10
2.994446693883564
 20
0.4484124979556802
 30
0.0
  0
VERTEX
  5
B21
  8
PROFILE
 10
2.996525194787416
 20
0.4523782678098023
 30
0.0
  0
VERTEX
  5
B22
  8
PROFILE
 10
2.99898560363182
 20
0.4560534295935392
 30
0.0
  0
VERTEX
  5
B23
  8
PROFILE
 10
3.001798738105585
 20
0.4594065142326751
 30
0.0
  0
VERTEX
  5
B24
  8
PROFILE
 10
3.00493541589752
 20
0.4624060526529938
 30
0.0
  0
VERTEX
  5
B25
  8
PROFILE
 10
3.034802082564186
 20
0.4900060526529937
 30
0.0
  0
VERTEX
  5
B26
  8
PROFILE
 10
3.010935415897519
 20
0.5094727193196604
 30
0.0
  0
VERTEX
  5
B27
  8
PROFILE
 10
3.007119149804583
 20
0.5129230847556554
 30
0.0
  0
VERTEX
  5
B28
  8
PROFILE
 10
3.003659698979088
 20
0.5168721744161872
 30
0.0
  0
VERTEX
  5
B29
  8
PROFILE
 10
3.000595265229162
 20
0.5212967644600357
 30
0.0
  0
VERTEX
  5
B2A
  8
PROFILE
 10
2.997964050362932
 20
0.5261736310459809
 30
0.0
  0
VERTEX
  5
B2B
  8
PROFILE
 10
2.995804256188525
 20
0.5314795503328027
 30
0.0
  0
VERTEX
  5
B2C
  8
PROFILE
 10
2.99415408451407
 20
0.5371912984792812
 30
0.0
  0
VERTEX
  5
B2D
  8
PROFILE
 10
2.993051737147692
 20
0.543285651644196
 30
0.0
  0
VERTEX
  5
B2E
  8
PROFILE
 10
2.99253541589752
 20
0.5497393859863271
 30
0.0
  0
VERTEX
  5
B2F
  8
PROFILE
 10
2.992402082564186
 20
0.5497393859863271
 30
0.0
  0
VERTEX
  5
B30
  8
PROFILE
 10
2.992668487547315
 20
0.5540881722414481
 30
0.0
  0
VERTEX
  5
B31
  8
PROFILE
 10
2.993450411167865
 20
0.5583113361878416
 30
0.0
  0
VERTEX
  5
B32
  8
PROFILE
 10
2.994721916432586
 20
0.5623874982367553
 30
0.0
  0
VERTEX
  5
B33
  8
PROFILE
 10
2.996457066348226
 20
0.5662952787994369
 30
0.0
  0
VERTEX
  5
B34
  8
PROFILE
 10
2.998629923921535
 20
0.570013298287134
 30
0.0
  0
VERTEX
  5
B35
  8
PROFILE
 10
3.001214552159261
 20
0.5735201771110943
 30
0.0
  0
VERTEX
  5
B36
  8
PROFILE
 10
3.004185014068153
 20
0.5767945356825654
 30
0.0
  0
VERTEX
  5
B37
  8
PROFILE
 10
3.00751537265496
 20
0.579814994412795
 30
0.0
  0
VERTEX
  5
B38
  8
PROFILE
 10
3.01117969092643
 20
0.5825601737130308
 30
0.0
  0
VERTEX
  5
B39
  8
PROFILE
 10
3.015152031889312
 20
0.5850086939945207
 30
0.0
  0
VERTEX
  5
B3A
  8
PROFILE
 10
3.019406458550354
 20
0.587139175668512
 30
0.0
  0
VERTEX
  5
B3B
  8
PROFILE
 10
3.023917033916307
 20
0.5889302391462525
 30
0.0
  0
VERTEX
  5
B3C
  8
PROFILE
 10
3.028657820993917
 20
0.5903605048389899
 30
0.0
  0
VERTEX
  5
B3D
  8
PROFILE
 10
3.033602882789935
 20
0.591408593157972
 30
0.0
  0
VERTEX
  5
B3E
  8
PROFILE
 10
3.038726282311109
 20
0.5920531245144462
 30
0.0
  0
VERTEX
  5
B3F
  8
PROFILE
 10
3.044002082564186
 20
0.5922727193196604
 30
0.0
  0
SEQEND
  5
E66
  8
PROFILE
  0
POLYLINE
  5
13B
  8
PROFILE
 66
     1
 10
0.0
 20
0.0
 30
0.0
  0
VERTEX
  5
B40
  8
PROFILE
 10
3.154402082564186
 20
0.5796060526529938
 30
0.0
  0
VERTEX
  5
B41
  8
PROFILE
 10
3.253602082564186
 20
0.5796060526529938
 30
0.0
  0
VERTEX
  5
B42
  8
PROFILE
 10
3.25213541589752
 20
0.5744060526529937
 30
0.0
  0
VERTEX
  5
B43
  8
PROFILE
 10
3.152135415897519
 20
0.5744060526529937
 30
0.0
  0
VERTEX
  5
B44
  8
PROFILE
 10
3.165602082564186
 20
0.5744060526529937
 30
0.0
  0
VERTEX
  5
B45
  8
PROFILE
 10
3.162475598050975
 20
0.5742228485537163
 30
0.0
  0
VERTEX
  5
B46
  8
PROFILE
 10
3.159514747649729
 20
0.573691019550709
 30
0.0
  0
VERTEX
  5
B47
  8
PROFILE
 10
3.156761926377781
 20
0.5728372405862099
 30
0.0
  0
VERTEX
  5
B48
  8
PROFILE
 10
3.154259529252465
 20
0.5716881866024568
 30
0.0
  0
VERTEX
  5
B49
  8
PROFILE
 10
3.152049951291114
 20
0.5702705325416875
 30
0.0
  0
VERTEX
  5
B4A
  8
PROFILE
 10
3.150175587511062
 20
0.5686109533461398
 30
0.0
  0
VERTEX
  5
B4B
  8
PROFILE
 10
3.148678832929641
 20
0.5667361239580514
 30
0.0
  0
VERTEX
  5
B4C
  8
PROFILE
 10
3.147602082564186
 20
0.5646727193196605
 30
0.0
  0
VERTEX
  5
B4D
  8
PROFILE
 10
3.140935415897519
 20
0.5482727193196604
 30
0.0
  0
VERTEX
  5
B4E
  8
PROFILE
 10
3.155868749230853
 20
0.5848060526529938
 30
0.0
  0
VERTEX
  5
B4F
  8
PROFILE
 10
3.259602082564186
 20
0.5848060526529938
 30
0.0
  0
VERTEX
  5
B50
  8
PROFILE
 10
3.259602082564186
 20
0.582539385986327
 30
0.0
  0
VERTEX
  5
B51
  8
PROFILE
 10
3.196935415897519
 20
0.3885393859863271
 30
0.0
  0
VERTEX
  5
B52
  8
PROFILE
 10
3.190135415897519
 20
0.3885393859863271
 30
0.0
  0
VERTEX
  5
B53
  8
PROFILE
 10
3.25213541589752
 20
0.5744060526529937
 30
0.0
  0
SEQEND
  5
E67
  8
PROFILE
  0
POLYLINE
  5
13C
  8
PROFILE
 66
     1
 10
0.0
 20
0.0
 30
0.0
 70
     1
  0
VERTEX
  5
B54
  8
PROFILE
 10
4.603989923708879
 20
-0.1382765647811118
 30
0.0
  0
VERTEX
  5
B55
  8
PROFILE
 10
4.789068354652935
 20
-0.1382765647811118
 30
0.0
  0
VERTEX
  5
B56
  8
PROFILE
 10
4.789068354652935
 20
-0.311867368976916
 30
0.0
  0
VERTEX
  5
B57
  8
PROFILE
 10
4.603989923708879
 20
-0.311867368976916
 30
0.0
  0
SEQEND
  5
E68
  8
PROFILE
  0
POLYLINE
  5
13D
  8
PROFILE
 66
     1
 10
0.0
 20
0.0
 30
0.0
 70
     1
  0
VERTEX
  5
B58
  8
PROFILE
 10
5.37876652772986
 20
0.1714638897643429
 30
0.0
  0
VERTEX
  5
B59
  8
PROFILE
 10
5.206452126506083
 20
0.15019050689721
 30
0.0
  0
VERTEX
  5
B5A
  8
PROFILE
 10
5.204607325335575
 20
0.1588992980084425
 30
0.0
  0
VERTEX
  5
B5B
  8
PROFILE
 10
5.202476663082788
 20
0.1669432959050772
 30
0.0
  0
VERTEX
  5
B5C
  8
PROFILE
 10
5.200060139747725
 20
0.1743225005871139
 30
0.0
  0
VERTEX
  5
B5D
  8
PROFILE
 10
5.197357755330384
 20
0.1810369120545527
 30
0.0
  0
VERTEX
  5
B5E
  8
PROFILE
 10
5.194369509830766
 20
0.1870865303073936
 30
0.0
  0
VERTEX
  5
B5F
  8
PROFILE
 10
5.191095403248871
 20
0.1924713553456366
 30
0.0
  0
VERTEX
  5
B60
  8
PROFILE
 10
5.187535435584699
 20
0.1971913871692817
 30
0.0
  0
VERTEX
  5
B61
  8
PROFILE
 10
5.183689606838251
 20
0.2012466257783289
 30
0.0
  0
VERTEX
  5
B62
  8
PROFILE
 10
5.179584508738109
 20
0.2047367901549678
 30
0.0
  0
VERTEX
  5
B63
  8
PROFILE
 10
5.175246733012858
 20
0.2077615992813883
 30
0.0
  0
VERTEX
  5
B64
  8
PROFILE
 10
5.170676279662497
 20
0.2103210531575902
 30
0.0
  0
VERTEX
  5
B65
  8
PROFILE
 10
5.165873148687027
 20
0.2124151517835736
 30
0.0
  0
VERTEX
  5
B66
  8
PROFILE
 10
5.160837340086448
 20
0.2140438951593384
 30
0.0
  0
VERTEX
  5
B67
  8
PROFILE
 10
5.15556885386076
 20
0.2152072832848848
 30
0.0
  0
VERTEX
  5
B68
  8
PROFILE
 10
5.150067690009962
 20
0.2159053161602126
 30
0.0
  0
VERTEX
  5
B69
  8
PROFILE
 10
5.144333848534055
 20
0.2161379937853218
 30
0.0
  0
VERTEX
  5
B6A
  8
PROFILE
 10
5.139141813528045
 20
0.2159717954816724
 30
0.0
  0
VERTEX
  5
B6B
  8
PROFILE
 10
5.134096033029247
 20
0.2154732005707239
 30
0.0
  0
VERTEX
  5
B6C
  8
PROFILE
 10
5.129196507037662
 20
0.2146422090524766
 30
0.0
  0
VERTEX
  5
B6D
  8
PROFILE
 10
5.124443235553287
 20
0.2134788209269302
 30
0.0
  0
VERTEX
  5
B6E
  8
PROFILE
 10
5.119836218576124
 20
0.211983036194085
 30
0.0
  0
VERTEX
  5
B6F
  8
PROFILE
 10
5.115375456106172
 20
0.2101548548539407
 30
0.0
  0
VERTEX
  5
B70
  8
PROFILE
 10
5.111060948143431
 20
0.2079942769064975
 30
0.0
  0
VERTEX
  5
B71
  8
PROFILE
 10
5.106892694687902
 20
0.2055013023517554
 30
0.0
  0
VERTEX
  5
B72
  8
PROFILE
 10
5.102870695739585
 20
0.2026759311897143
 30
0.0
  0
VERTEX
  5
B73
  8
PROFILE
 10
5.098994951298479
 20
0.1995181634203743
 30
0.0
  0
VERTEX
  5
B74
  8
PROFILE
 10
5.095265461364586
 20
0.1960279990437353
 30
0.0
  0
VERTEX
  5
B75
  8
PROFILE
 10
5.091682225937903
 20
0.1922054380597974
 30
0.0
  0
VERTEX
  5
B76
  8
PROFILE
 10
5.088245245018432
 20
0.1880504804685605
 30
0.0
  0
VERTEX
  5
B77
  8
PROFILE
 10
5.084954518606172
 20
0.1835631262700247
 30
0.0
  0
VERTEX
  5
B78
  8
PROFILE
 10
5.078811829303286
 20
0.1735912280510561
 30
0.0
  0
VERTEX
  5
B79
  8
PROFILE
 10
5.074696759304926
 20
0.1648425493469478
 30
0.0
  0
VERTEX
  5
B7A
  8
PROFILE
 10
5.070860902456696
 20
0.1539133488989582
 30
0.0
  0
VERTEX
  5
B7B
  8
PROFILE
 10
5.067304258758597
 20
0.1408036267070876
 30
0.0
  0
VERTEX
  5
B7C
  8
PROFILE
 10
5.064026828210629
 20
0.1255133827713359
 30
0.0
  0
VERTEX
  5
B7D
  8
PROFILE
 10
5.061028610812793
 20
0.108042617091703
 30
0.0
  0
VERTEX
  5
B7E
  8
PROFILE
 10
5.058309606565087
 20
0.088391329668189
 30
0.0
  0
VERTEX
  5
B7F
  8
PROFILE
 10
5.055869815467513
 20
0.0665595205007939
 30
0.0
  0
VERTEX
  5
B80
  8
PROFILE
 10
5.053709237520069
 20
0.0425471895895177
 30
0.0
  0
VERTEX
  5
B81
  8
PROFILE
 10
5.061500613995157
 20
0.0501623958627367
 30
0.0
  0
VERTEX
  5
B82
  8
PROFILE
 10
5.069345173927411
 20
0.0572657113607152
 30
0.0
  0
VERTEX
  5
B83
  8
PROFILE
 10
5.077242917316834
 20
0.0638571360834534
 30
0.0
  0
VERTEX
  5
B84
  8
PROFILE
 10
5.085193844163426
 20
0.0699366700309512
 30
0.0
  0
VERTEX
  5
B85
  8
PROFILE
 10
5.093197954467185
 20
0.0755043132032087
 30
0.0
  0
VERTEX
  5
B86
  8
PROFILE
 10
5.101255248228112
 20
0.0805600656002257
 30
0.0
  0
VERTEX
  5
B87
  8
PROFILE
 10
5.109365725446207
 20
0.0851039272220024
 30
0.0
  0
VERTEX
  5
B88
  8
PROFILE
 10
5.117529386121467
 20
0.0891358980685387
 30
0.0
  0
VERTEX
  5
B89
  8
PROFILE
 10
5.125879188896818
 20
0.0926759219362725
 30
0.0
  0
VERTEX
  5
B8A
  8
PROFILE
 10
5.134548092415174
 20
0.0957439426216418
 30
0.0
  0
VERTEX
  5
B8B
  8
PROFILE
 10
5.143536096676537
 20
0.0983399601246466
 30
0.0
  0
VERTEX
  5
B8C
  8
PROFILE
 10
5.152843201680908
 20
0.1004639744452869
 30
0.0
  0
VERTEX
  5
B8D
  8
PROFILE
 10
5.162469407428286
 20
0.1021159855835627
 30
0.0
  0
VERTEX
  5
B8E
  8
PROFILE
 10
5.172414713918671
 20
0.103295993539474
 30
0.0
  0
VERTEX
  5
B8F
  8
PROFILE
 10
5.182679121152063
 20
0.1040039983130207
 30
0.0
  0
VERTEX
  5
B90
  8
PROFILE
 10
5.193262629128461
 20
0.104239999904203
 30
0.0
  0
VERTEX
  5
B91
  8
PROFILE
 10
5.203586036759648
 20
0.1040073222790937
 30
0.0
  0
VERTEX
  5
B92
  8
PROFILE
 10
5.21370834444342
 20
0.1033092894037659
 30
0.0
  0
VERTEX
  5
B93
  8
PROFILE
 10
5.223629552179775
 20
0.1021459012782196
 30
0.0
  0
VERTEX
  5
B94
  8
PROFILE
 10
5.233349659968715
 20
0.1005171579024548
 30
0.0
  0
VERTEX
  5
B95
  8
PROFILE
 10
5.242868667810239
 20
0.0984230592764714
 30
0.0
  0
VERTEX
  5
B96
  8
PROFILE
 10
5.252186575704346
 20
0.0958636054002694
 30
0.0
  0
VERTEX
  5
B97
  8
PROFILE
 10
5.261303383651038
 20
0.092838796273849
 30
0.0
  0
VERTEX
  5
B98
  8
PROFILE
 10
5.270219091650314
 20
0.08934863189721
 30
0.0
  0
VERTEX
  5
B99
  8
PROFILE
 10
5.278933699702175
 20
0.0853931122703525
 30
0.0
  0
VERTEX
  5
B9A
  8
PROFILE
 10
5.287447207806618
 20
0.0809722373932764
 30
0.0
  0
VERTEX
  5
B9B
  8
PROFILE
 10
5.295759615963647
 20
0.0760860072659818
 30
0.0
  0
VERTEX
  5
B9C
  8
PROFILE
 10
5.30387092417326
 20
0.0707344218884687
 30
0.0
  0
VERTEX
  5
B9D
  8
PROFILE
 10
5.311781132435456
 20
0.0649174812607371
 30
0.0
  0
VERTEX
  5
B9E
  8
PROFILE
 10
5.319490240750238
 20
0.0586351853827869
 30
0.0
  0
VERTEX
  5
B9F
  8
PROFILE
 10
5.326998249117603
 20
0.0518875342546182
 30
0.0
  0
VERTEX
  5
BA0
  8
PROFILE
 10
5.334305157537552
 20
0.0446745278762309
 30
0.0
  0
VERTEX
  5
BA1
  8
PROFILE
 10
5.341286317282346
 20
0.0371041951449973
 30
0.0
  0
VERTEX
  5
BA2
  8
PROFILE
 10
5.347817079624253
 20
0.0292845649582895
 30
0.0
  0
VERTEX
  5
BA3
  8
PROFILE
 10
5.35389744456327
 20
0.0212156373161075
 30
0.0
  0
VERTEX
  5
BA4
  8
PROFILE
 10
5.359527412099396
 20
0.0128974122184512
 30
0.0
  0
VERTEX
  5
BA5
  8
PROFILE
 10
5.364706982232631
 20
0.0043298896653207
 30
0.0
  0
VERTEX
  5
BA6
  8
PROFILE
 10
5.369436154962978
 20
-0.0044869303432839
 30
0.0
  0
VERTEX
  5
BA7
  8
PROFILE
 10
5.373714930290433
 20
-0.0135530478073628
 30
0.0
  0
VERTEX
  5
BA8
  8
PROFILE
 10
5.377543308214999
 20
-0.0228684627269159
 30
0.0
  0
VERTEX
  5
BA9
  8
PROFILE
 10
5.380921288736674
 20
-0.0324331751019433
 30
0.0
  0
VERTEX
  5
BAA
  8
PROFILE
 10
5.383848871855459
 20
-0.0422471849324448
 30
0.0
  0
VERTEX
  5
BAB
  8
PROFILE
 10
5.386326057571354
 20
-0.0523104922184205
 30
0.0
  0
VERTEX
  5
BAC
  8
PROFILE
 10
5.388352845884361
 20
-0.0626230969598705
 30
0.0
  0
VERTEX
  5
BAD
  8
PROFILE
 10
5.389929236794476
 20
-0.0731849991567947
 30
0.0
  0
VERTEX
  5
BAE
  8
PROFILE
 10
5.391055230301702
 20
-0.083996198809193
 30
0.0
  0
VERTEX
  5
BAF
  8
PROFILE
 10
5.391730826406037
 20
-0.0950566959170657
 30
0.0
  0
VERTEX
  5
BB0
  8
PROFILE
 10
5.391956025107482
 20
-0.1063664904804125
 30
0.0
  0
VERTEX
  5
BB1
  8
PROFILE
 10
5.391500641755482
 20
-0.1216234947554343
 30
0.0
  0
VERTEX
  5
BB2
  8
PROFILE
 10
5.390134491699484
 20
-0.1365481024231572
 30
0.0
  0
VERTEX
  5
BB3
  8
PROFILE
 10
5.387857574939486
 20
-0.1511403134835811
 30
0.0
  0
VERTEX
  5
BB4
  8
PROFILE
 10
5.384669891475489
 20
-0.1654001279367062
 30
0.0
  0
VERTEX
  5
BB5
  8
PROFILE
 10
5.380571441307493
 20
-0.1793275457825322
 30
0.0
  0
VERTEX
  5
BB6
  8
PROFILE
 10
5.375562224435498
 20
-0.1929225670210593
 30
0.0
  0
VERTEX
  5
BB7
  8
PROFILE
 10
5.369642240859504
 20
-0.2061851916522875
 30
0.0
  0
VERTEX
  5
BB8
  8
PROFILE
 10
5.36281149057951
 20
-0.2191154196762167
 30
0.0
  0
VERTEX
  5
BB9
  8
PROFILE
 10
5.35517301654378
 20
-0.2314905453659566
 30
0.0
  0
VERTEX
  5
BBA
  8
PROFILE
 10
5.346829861700576
 20
-0.243087862994617
 30
0.0
  0
VERTEX
  5
BBB
  8
PROFILE
 10
5.337782026049898
 20
-0.253907372562198
 30
0.0
  0
VERTEX
  5
BBC
  8
PROFILE
 10
5.328029509591747
 20
-0.2639490740686993
 30
0.0
  0
VERTEX
  5
BBD
  8
PROFILE
 10
5.317572312326122
 20
-0.2732129675141211
 30
0.0
  0
VERTEX
  5
BBE
  8
PROFILE
 10
5.306410434253023
 20
-0.2816990528984632
 30
0.0
  0
VERTEX
  5
BBF
  8
PROFILE
 10
5.294543875372451
 20
-0.2894073302217259
 30
0.0
  0
VERTEX
  5
BC0
  8
PROFILE
 10
5.281972635684405
 20
-0.296337799483909
 30
0.0
  0
VERTEX
  5
BC1
  8
PROFILE
 10
5.268640207765644
 20
-0.3024705168885747
 30
0.0
  0
VERTEX
  5
BC2
  8
PROFILE
 10
5.254490084192928
 20
-0.3077855386392849
 30
0.0
  0
VERTEX
  5
BC3
  8
PROFILE
 10
5.239522264966256
 20
-0.3122828647360397
 30
0.0
  0
VERTEX
  5
BC4
  8
PROFILE
 10
5.223736750085629
 20
-0.3159624951788391
 30
0.0
  0
VERTEX
  5
BC5
  8
PROFILE
 10
5.207133539551046
 20
-0.3188244299676831
 30
0.0
  0
VERTEX
  5
BC6
  8
PROFILE
 10
5.189712633362508
 20
-0.3208686691025716
 30
0.0
  0
VERTEX
  5
BC7
  8
PROFILE
 10
5.171474031520015
 20
-0.3220952125835047
 30
0.0
  0
VERTEX
  5
BC8
  8
PROFILE
 10
5.152417734023566
 20
-0.3225040604104825
 30
0.0
  0
VERTEX
  5
BC9
  8
PROFILE
 10
5.12959538296642
 20
-0.322005465499534
 30
0.0
  0
VERTEX
  5
BCA
  8
PROFILE
 10
5.107929772102674
 20
-0.3205096807666887
 30
0.0
  0
VERTEX
  5
BCB
  8
PROFILE
 10
5.087420901432328
 20
-0.3180167062119466
 30
0.0
  0
VERTEX
  5
BCC
  8
PROFILE
 10
5.068068770955383
 20
-0.3145265418353076
 30
0.0
  0
VERTEX
  5
BCD
  8
PROFILE
 10
5.058826483289437
 20
-0.3124075134637768
 30
0.0
  0
VERTEX
  5
BCE
  8
PROFILE
 10
5.04987338067184
 20
-0.3100391876367717
 30
0.0
  0
VERTEX
  5
BCF
  8
PROFILE
 10
5.041209463102592
 20
-0.3074215643542925
 30
0.0
  0
VERTEX
  5
BD0
  8
PROFILE
 10
5.032834730581695
 20
-0.3045546436163391
 30
0.0
  0
VERTEX
  5
BD1
  8
PROFILE
 10
5.024749183109148
 20
-0.3014384254229114
 30
0.0
  0
VERTEX
  5
BD2
  8
PROFILE
 10
5.016952820684951
 20
-0.2980729097740096
 30
0.0
  0
VERTEX
  5
BD3
  8
PROFILE
 10
5.009445643309104
 20
-0.2944580966696334
 30
0.0
  0
VERTEX
  5
BD4
  8
PROFILE
 10
5.002227650981608
 20
-0.2905939861097832
 30
0.0
  0
VERTEX
  5
BD5
  8
PROFILE
 10
4.995243167270738
 20
-0.2864564793404295
 30
0.0
  0
VERTEX
  5
BD6
  8
PROFILE
 10
4.988436515744775
 20
-0.2820214776075432
 30
0.0
  0
VERTEX
  5
BD7
  8
PROFILE
 10
4.981807696403715
 20
-0.2772889809111244
 30
0.0
  0
VERTEX
  5
BD8
  8
PROFILE
 10
4.97535670924756
 20
-0.272258989251173
 30
0.0
  0
VERTEX
  5
BD9
  8
PROFILE
 10
4.96908355427631
 20
-0.2669315026276891
 30
0.0
  0
VERTEX
  5
BDA
  8
PROFILE
 10
4.962988231489966
 20
-0.2613065210406725
 30
0.0
  0
VERTEX
  5
BDB
  8
PROFILE
 10
4.957070740888526
 20
-0.2553840444901235
 30
0.0
  0
VERTEX
  5
BDC
  8
PROFILE
 10
4.951331082471992
 20
-0.2491640729760419
 30
0.0
  0
VERTEX
  5
BDD
  8
PROFILE
 10
4.945769256240363
 20
-0.2426466064984277
 30
0.0
  0
VERTEX
  5
BDE
  8
PROFILE
 10
4.940385262193638
 20
-0.2358316450572809
 30
0.0
  0
VERTEX
  5
BDF
  8
PROFILE
 10
4.935179100331817
 20
-0.2287191886526016
 30
0.0
  0
VERTEX
  5
BE0
  8
PROFILE
 10
4.930150770654904
 20
-0.2213092372843898
 30
0.0
  0
VERTEX
  5
BE1
  8
PROFILE
 10
4.925300273162894
 20
-0.2136017909526453
 30
0.0
  0
VERTEX
  5
BE2
  8
PROFILE
 10
4.920627607855789
 20
-0.2055968496573684
 30
0.0
  0
VERTEX
  5
BE3
  8
PROFILE
 10
4.911815773796293
 20
-0.1886944821762167
 30
0.0
  0
VERTEX
  5
BE4
  8
PROFILE
 10
4.907719816602851
 20
-0.1797688022787216
 30
0.0
  0
VERTEX
  5
BE5
  8
PROFILE
 10
4.903888114712213
 20
-0.1704891199944532
 30
0.0
  0
VERTEX
  5
BE6
  8
PROFILE
 10
4.900320668124377
 20
-0.1608554353234113
 30
0.0
  0
VERTEX
  5
BE7
  8
PROFILE
 10
4.897017476839344
 20
-0.150867748265596
 30
0.0
  0
VERTEX
  5
BE8
  8
PROFILE
 10
4.893978540857113
 20
-0.1405260588210074
 30
0.0
  0
VERTEX
  5
BE9
  8
PROFILE
 10
4.891203860177685
 20
-0.1298303669896454
 30
0.0
  0
VERTEX
  5
BEA
  8
PROFILE
 10
4.888693434801059
 20
-0.11878067277151
 30
0.0
  0
VERTEX
  5
BEB
  8
PROFILE
 10
4.886447264727237
 20
-0.1073769761666013
 30
0.0
  0
VERTEX
  5
BEC
  8
PROFILE
 10
4.884465349956217
 20
-0.0956192771749191
 30
0.0
  0
VERTEX
  5
BED
  8
PROFILE
 10
4.882747690487999
 20
-0.0835075757964636
 30
0.0
  0
VERTEX
  5
BEE
  8
PROFILE
 10
4.880105137459974
 20
-0.0582221658792324
 30
0.0
  0
VERTEX
  5
BEF
  8
PROFILE
 10
4.878519605643158
 20
-0.0315207464149076
 30
0.0
  0
VERTEX
  5
BF0
  8
PROFILE
 10
4.877991095037552
 20
-0.0034033174034894
 30
0.0
  0
VERTEX
  5
BF1
  8
PROFILE
 10
4.878268646204646
 20
0.0173573436968849
 30
0.0
  0
VERTEX
  5
BF2
  8
PROFILE
 10
4.87910129970593
 20
0.0374116620067488
 30
0.0
  0
VERTEX
  5
BF3
  8
PROFILE
 10
4.880489055541403
 20
0.0567596375261025
 30
0.0
  0
VERTEX
  5
BF4
  8
PROFILE
 10
4.882431913711065
 20
0.075401270254946
 30
0.0
  0
VERTEX
  5
BF5
  8
PROFILE
 10
4.884929874214917
 20
0.0933365601932791
 30
0.0
  0
VERTEX
  5
BF6
  8
PROFILE
 10
4.887982937052958
 20
0.110565507341102
 30
0.0
  0
VERTEX
  5
BF7
  8
PROFILE
 10
4.891591102225188
 20
0.1270881116984146
 30
0.0
  0
VERTEX
  5
BF8
  8
PROFILE
 10
4.895754369731607
 20
0.142904373265217
 30
0.0
  0
VERTEX
  5
BF9
  8
PROFILE
 10
4.900472739572216
 20
0.1580142920415091
 30
0.0
  0
VERTEX
  5
BFA
  8
PROFILE
 10
4.905746211747014
 20
0.1724178680272909
 30
0.0
  0
VERTEX
  5
BFB
  8
PROFILE
 10
4.911574786256002
 20
0.1861151012225624
 30
0.0
  0
VERTEX
  5
BFC
  8
PROFILE
 10
4.917958463099178
 20
0.1991059916273236
 30
0.0
  0
VERTEX
  5
BFD
  8
PROFILE
 10
4.924897242276544
 20
0.2113905392415746
 30
0.0
  0
VERTEX
  5
BFE
  8
PROFILE
 10
4.932391123788099
 20
0.2229687440653154
 30
0.0
  0
VERTEX
  5
BFF
  8
PROFILE
 10
4.940440107633843
 20
0.2338406060985458
 30
0.0
  0
VERTEX
  5
C00
  8
PROFILE
 10
4.949044193813775
 20
0.244006125341266
 30
0.0
  0
VERTEX
  5
C01
  8
PROFILE
 10
4.95814022697251
 20
0.2535118373184977
 30
0.0
  0
VERTEX
  5
C02
  8
PROFILE
 10
4.967665051754663
 20
0.2624042775552629
 30
0.0
  0
VERTEX
  5
C03
  8
PROFILE
 10
4.977618668160229
 20
0.2706834460515615
 30
0.0
  0
VERTEX
  5
C04
  8
PROFILE
 10
4.988001076189212
 20
0.2783493428073936
 30
0.0
  0
VERTEX
  5
C05
  8
PROFILE
 10
4.99881227584161
 20
0.2854019678227591
 30
0.0
  0
VERTEX
  5
C06
  8
PROFILE
 10
5.010052267117425
 20
0.291841321097658
 30
0.0
  0
VERTEX
  5
C07
  8
PROFILE
 10
5.021721050016654
 20
0.2976674026320903
 30
0.0
  0
VERTEX
  5
C08
  8
PROFILE
 10
5.0338186245393
 20
0.3028802124260561
 30
0.0
  0
VERTEX
  5
C09
  8
PROFILE
 10
5.046344990685361
 20
0.3074797504795554
 30
0.0
  0
VERTEX
  5
C0A
  8
PROFILE
 10
5.059300148454838
 20
0.3114660167925881
 30
0.0
  0
VERTEX
  5
C0B
  8
PROFILE
 10
5.072684097847731
 20
0.3148390113651541
 30
0.0
  0
VERTEX
  5
C0C
  8
PROFILE
 10
5.086496838864038
 20
0.3175987341972537
 30
0.0
  0
VERTEX
  5
C0D
  8
PROFILE
 10
5.100738371503761
 20
0.3197451852888866
 30
0.0
  0
VERTEX
  5
C0E
  8
PROFILE
 10
5.1154086957669
 20
0.3212783646400531
 30
0.0
  0
VERTEX
  5
C0F
  8
PROFILE
 10
5.130507811653455
 20
0.3221982722507529
 30
0.0
  0
VERTEX
  5
C10
  8
PROFILE
 10
5.146035719163426
 20
0.3225049081209862
 30
0.0
  0
VERTEX
  5
C11
  8
PROFILE
 10
5.164161306159438
 20
0.3222356668690741
 30
0.0
  0
VERTEX
  5
C12
  8
PROFILE
 10
5.181309647129991
 20
0.3214279431133376
 30
0.0
  0
VERTEX
  5
C13
  8
PROFILE
 10
5.197480742075085
 20
0.3200817368537769
 30
0.0
  0
VERTEX
  5
C14
  8
PROFILE
 10
5.212674590994721
 20
0.3181970480903918
 30
0.0
  0
VERTEX
  5
C15
  8
PROFILE
 10
5.226891193888897
 20
0.3157738768231825
 30
0.0
  0
VERTEX
  5
C16
  8
PROFILE
 10
5.240130550757613
 20
0.3128122230521488
 30
0.0
  0
VERTEX
  5
C17
  8
PROFILE
 10
5.252392661600872
 20
0.3093120867772909
 30
0.0
  0
VERTEX
  5
C18
  8
PROFILE
 10
5.263677526418671
 20
0.3052734679986087
 30
0.0
  0
VERTEX
  5
C19
  8
PROFILE
 10
5.274244414564704
 20
0.3007163105125401
 30
0.0
  0
VERTEX
  5
C1A
  8
PROFILE
 10
5.284352595392665
 20
0.295660558115523
 30
0.0
  0
VERTEX
  5
C1B
  8
PROFILE
 10
5.294002068902555
 20
0.2901062108075576
 30
0.0
  0
VERTEX
  5
C1C
  8
PROFILE
 10
5.30319283509437
 20
0.2840532685886437
 30
0.0
  0
VERTEX
  5
C1D
  8
PROFILE
 10
5.311924893968113
 20
0.2775017314587813
 30
0.0
  0
VERTEX
  5
C1E
  8
PROFILE
 10
5.320198245523784
 20
0.2704515994179705
 30
0.0
  0
VERTEX
  5
C1F
  8
PROFILE
 10
5.328012889761384
 20
0.2629028724662114
 30
0.0
  0
VERTEX
  5
C20
  8
PROFILE
 10
5.335368826680909
 20
0.2548555506035037
 30
0.0
  0
VERTEX
  5
C21
  8
PROFILE
 10
5.342282676112727
 20
0.2462930139994828
 30
0.0
  0
VERTEX
  5
C22
  8
PROFILE
 10
5.348771057887202
 20
0.2371986428237835
 30
0.0
  0
VERTEX
  5
C23
  8
PROFILE
 10
5.354833972004335
 20
0.2275724370764058
 30
0.0
  0
VERTEX
  5
C24
  8
PROFILE
 10
5.360471418464125
 20
0.2174143967573499
 30
0.0
  0
VERTEX
  5
C25
  8
PROFILE
 10
5.365683397266573
 20
0.2067245218666156
 30
0.0
  0
VERTEX
  5
C26
  8
PROFILE
 10
5.370469908411677
 20
0.1955028124042031
 30
0.0
  0
VERTEX
  5
C27
  8
PROFILE
 10
5.37483095189944
 20
0.1837492683701121
 30
0.0
  0
SEQEND
  5
E69
  8
PROFILE
  0
POLYLINE
  5
13E
  8
PROFILE
 66
     1
 10
0.0
 20
0.0
 30
0.0
 70
     1
  0
VERTEX
  5
C28
  8
PROFILE
 10
5.059665784722866
 20
-0.1063664904804125
 30
0.0
  0
VERTEX
  5
C29
  8
PROFILE
 10
5.060064660651625
 20
-0.1186817847808386
 30
0.0
  0
VERTEX
  5
C2A
  8
PROFILE
 10
5.061261288437901
 20
-0.1303123420702289
 30
0.0
  0
VERTEX
  5
C2B
  8
PROFILE
 10
5.063255668081695
 20
-0.1412581623485833
 30
0.0
  0
VERTEX
  5
C2C
  8
PROFILE
 10
5.066047799583006
 20
-0.151519245615902
 30
0.0
  0
VERTEX
  5
C2D
  8
PROFILE
 10
5.069637682941835
 20
-0.1610955918721848
 30
0.0
  0
VERTEX
  5
C2E
  8
PROFILE
 10
5.074025318158181
 20
-0.1699872011174317
 30
0.0
  0
VERTEX
  5
C2F
  8
PROFILE
 10
5.079210705232045
 20
-0.1781940733516428
 30
0.0
  0
VERTEX
  5
C30
  8
PROFILE
 10
5.085193844163426
 20
-0.1857162085748181
 30
0.0
  0
VERTEX
  5
C31
  8
PROFILE
 10
5.091755353191507
 20
-0.1924472398726219
 30
0.0
  0
VERTEX
  5
C32
  8
PROFILE
 10
5.098675850555471
 20
-0.1982808003307184
 30
0.0
  0
VERTEX
  5
C33
  8
PROFILE
 10
5.105955336255318
 20
-0.2032168899491079
 30
0.0
  0
VERTEX
  5
C34
  8
PROFILE
 10
5.113593810291048
 20
-0.2072555087277901
 30
0.0
  0
VERTEX
  5
C35
  8
PROFILE
 10
5.121591272662661
 20
-0.2103966566667652
 30
0.0
  0
VERTEX
  5
C36
  8
PROFILE
 10
5.129947723370156
 20
-0.2126403337660331
 30
0.0
  0
VERTEX
  5
C37
  8
PROFILE
 10
5.138663162413534
 20
-0.2139865400255939
 30
0.0
  0
VERTEX
  5
C38
  8
PROFILE
 10
5.147737589792796
 20
-0.2144352754454475
 30
0.0
  0
VERTEX
  5
C39
  8
PROFILE
 10
5.156074096703854
 20
-0.2140297515845427
 30
0.0
  0
VERTEX
  5
C3A
  8
PROFILE
 10
5.164064911143321
 20
-0.2128131800018286
 30
0.0
  0
VERTEX
  5
C3B
  8
PROFILE
 10
5.171710033111196
 20
-0.210785560697305
 30
0.0
  0
VERTEX
  5
C3C
  8
PROFILE
 10
5.179009462607482
 20
-0.2079468936709719
 30
0.0
  0
VERTEX
  5
C3D
  8
PROFILE
 10
5.185963199632177
 20
-0.2042971789228294
 30
0.0
  0
VERTEX
  5
C3E
  8
PROFILE
 10
5.192571244185279
 20
-0.1998364164528775
 30
0.0
  0
VERTEX
  5
C3F
  8
PROFILE
 10
5.198833596266791
 20
-0.1945646062611162
 30
0.0
  0
VERTEX
  5
C40
  8
PROFILE
 10
5.204750255876712
 20
-0.1884817483475454
 30
0.0
  0
VERTEX
  5
C41
  8
PROFILE
 10
5.210135080914955
 20
-0.1815944906443111
 30
0.0
  0
VERTEX
  5
C42
  8
PROFILE
 10
5.214801929281433
 20
-0.1739094810835593
 30
0.0
  0
VERTEX
  5
C43
  8
PROFILE
 10
5.218750800976144
 20
-0.1654267196652901
 30
0.0
  0
VERTEX
  5
C44
  8
PROFILE
 10
5.221981695999091
 20
-0.1561462063895034
 30
0.0
  0
VERTEX
  5
C45
  8
PROFILE
 10
5.22449461435027
 20
-0.1460679412561992
 30
0.0
  0
VERTEX
  5
C46
  8
PROFILE
 10
5.226289556029685
 20
-0.1351919242653775
 30
0.0
  0
VERTEX
  5
C47
  8
PROFILE
 10
5.227366521037333
 20
-0.1235181554170384
 30
0.0
  0
VERTEX
  5
C48
  8
PROFILE
 10
5.227725509373216
 20
-0.1110466347111817
 30
0.0
  0
VERTEX
  5
C49
  8
PROFILE
 10
5.227353225173041
 20
-0.0982493653301721
 30
0.0
  0
VERTEX
  5
C4A
  8
PROFILE
 10
5.226236372572517
 20
-0.086236551942388
 30
0.0
  0
VERTEX
  5
C4B
  8
PROFILE
 10
5.224374951571642
 20
-0.0750081945478294
 30
0.0
  0
VERTEX
  5
C4C
  8
PROFILE
 10
5.221768962170419
 20
-0.0645642931464964
 30
0.0
  0
VERTEX
  5
C4D
  8
PROFILE
 10
5.218418404368846
 20
-0.0549048477383889
 30
0.0
  0
VERTEX
  5
C4E
  8
PROFILE
 10
5.214323278166923
 20
-0.0460298583235069
 30
0.0
  0
VERTEX
  5
C4F
  8
PROFILE
 10
5.20948358356465
 20
-0.0379393249018504
 30
0.0
  0
VERTEX
  5
C50
  8
PROFILE
 10
5.203899320562027
 20
-0.0306332474734194
 30
0.0
  0
VERTEX
  5
C51
  8
PROFILE
 10
5.197763279191289
 20
-0.0241515136310899
 30
0.0
  0
VERTEX
  5
C52
  8
PROFILE
 10
5.191268249484668
 20
-0.0185340109677376
 30
0.0
  0
VERTEX
  5
C53
  8
PROFILE
 10
5.184414231442164
 20
-0.0137807394833626
 30
0.0
  0
VERTEX
  5
C54
  8
PROFILE
 10
5.177201225063776
 20
-0.0098916991779649
 30
0.0
  0
VERTEX
  5
C55
  8
PROFILE
 10
5.169629230349506
 20
-0.0068668900515444
 30
0.0
  0
VERTEX
  5
C56
  8
PROFILE
 10
5.161698247299353
 20
-0.0047063121041013
 30
0.0
  0
VERTEX
  5
C57
  8
PROFILE
 10
5.153408275913317
 20
-0.0034099653356354
 30
0.0
  0
VERTEX
  5
C58
  8
PROFILE
 10
5.144759316191398
 20
-0.0029778497461467
 30
0.0
  0
VERTEX
  5
C59
  8
PROFILE
 10
5.135900946606881
 20
-0.0033966694713434
 30
0.0
  0
VERTEX
  5
C5A
  8
PROFILE
 10
5.127408213290392
 20
-0.0046531286469334
 30
0.0
  0
VERTEX
  5
C5B
  8
PROFILE
 10
5.119281116241932
 20
-0.0067472272729168
 30
0.0
  0
VERTEX
  5
C5C
  8
PROFILE
 10
5.111519655461503
 20
-0.0096789653492936
 30
0.0
  0
VERTEX
  5
C5D
  8
PROFILE
 10
5.104123830949101
 20
-0.0134483428760637
 30
0.0
  0
VERTEX
  5
C5E
  8
PROFILE
 10
5.097093642704728
 20
-0.0180553598532271
 30
0.0
  0
VERTEX
  5
C5F
  8
PROFILE
 10
5.090429090728383
 20
-0.0235000162807839
 30
0.0
  0
VERTEX
  5
C60
  8
PROFILE
 10
5.08413017502007
 20
-0.0297823121587341
 30
0.0
  0
VERTEX
  5
C61
  8
PROFILE
 10
5.078396333544163
 20
-0.0368424160977638
 30
0.0
  0
VERTEX
  5
C62
  8
PROFILE
 10
5.073427004265043
 20
-0.0446204967085593
 30
0.0
  0
VERTEX
  5
C63
  8
PROFILE
 10
5.069222187182711
 20
-0.0531165539911205
 30
0.0
  0
VERTEX
  5
C64
  8
PROFILE
 10
5.065781882297167
 20
-0.0623305879454474
 30
0.0
  0
VERTEX
  5
C65
  8
PROFILE
 10
5.063106089608411
 20
-0.0722625985715401
 30
0.0
  0
VERTEX
  5
C66
  8
PROFILE
 10
5.061194809116442
 20
-0.0829125858693985
 30
0.0
  0
VERTEX
  5
C67
  8
PROFILE
 10
5.06004804082126
 20
-0.0942805498390226
 30
0.0
  0
SEQEND
  5
E6A
  8
PROFILE
  0
POLYLINE
  5
13F
  8
PROFILE
 66
     1
 10
0.0
 20
0.0
 30
0.0
 70
     1
  0
VERTEX
  5
C68
  8
PROFILE
 10
5.965486427205386
 20
-0.311867368976916
 30
0.0
  0
VERTEX
  5
C69
  8
PROFILE
 10
5.445564949932658
 20
-0.311867368976916
 30
0.0
  0
VERTEX
  5
C6A
  8
PROFILE
 10
5.448367053332189
 20
-0.2927578880232993
 30
0.0
  0
VERTEX
  5
C6B
  8
PROFILE
 10
5.452305953128681
 20
-0.2739342681519597
 30
0.0
  0
VERTEX
  5
C6C
  8
PROFILE
 10
5.457381649322136
 20
-0.2553965093628972
 30
0.0
  0
VERTEX
  5
C6D
  8
PROFILE
 10
5.463594141912553
 20
-0.2371446116561118
 30
0.0
  0
VERTEX
  5
C6E
  8
PROFILE
 10
5.470943430899933
 20
-0.2191785750316035
 30
0.0
  0
VERTEX
  5
C6F
  8
PROFILE
 10
5.479429516284275
 20
-0.2014983994893723
 30
0.0
  0
VERTEX
  5
C70
  8
PROFILE
 10
5.489052398065581
 20
-0.1841040850294182
 30
0.0
  0
VERTEX
  5
C71
  8
PROFILE
 10
5.499812076243847
 20
-0.1669956316517412
 30
0.0
  0
VERTEX
  5
C72
  8
PROFILE
 10
5.505786074268528
 20
-0.1584173062088735
 30
0.0
  0
VERTEX
  5
C73
  8
PROFILE
 10
5.512379991965821
 20
-0.1496478527168089
 30
0.0
  0
VERTEX
  5
C74
  8
PROFILE
 10
5.519593829335726
 20
-0.1406872711755474
 30
0.0
  0
VERTEX
  5
C75
  8
PROFILE
 10
5.527427586378244
 20
-0.131535561585089
 30
0.0
  0
VERTEX
  5
C76
  8
PROFILE
 10
5.535881263093374
 20
-0.1221927239454338
 30
0.0
  0
VERTEX
  5
C77
  8
PROFILE
 10
5.544954859481118
 20
-0.1126587582565816
 30
0.0
  0
VERTEX
  5
C78
  8
PROFILE
 10
5.564961811274442
 20
-0.0930174427312866
 30
0.0
  0
VERTEX
  5
C79
  8
PROFILE
 10
5.587448441758215
 20
-0.072611615009204
 30
0.0
  0
VERTEX
  5
C7A
  8
PROFILE
 10
5.612414750932439
 20
-0.0514412750903338
 30
0.0
  0
VERTEX
  5
C7B
  8
PROFILE
 10
5.639860738797114
 20
-0.029506422974676
 30
0.0
  0
VERTEX
  5
C7C
  8
PROFILE
 10
5.669786405352239
 20
-0.0068070586622306
 30
0.0
  0
VERTEX
  5
C7D
  8
PROFILE
 10
5.687968499771491
 20
0.0069142732870701
 30
0.0
  0
VERTEX
  5
C7E
  8
PROFILE
 10
5.704435427697081
 20
0.0197846699216855
 30
0.0
  0
VERTEX
  5
C7F
  8
PROFILE
 10
5.719187189129009
 20
0.0318041312416155
 30
0.0
  0
VERTEX
  5
C80
  8
PROFILE
 10
5.732223784067274
 20
0.0429726572468603
 30
0.0
  0
VERTEX
  5
C81
  8
PROFILE
 10
5.743545212511876
 20
0.0532902479374198
 30
0.0
  0
VERTEX
  5
C82
  8
PROFILE
 10
5.753151474462816
 20
0.0627569033132939
 30
0.0
  0
VERTEX
  5
C83
  8
PROFILE
 10
5.761042569920093
 20
0.0713726233744827
 30
0.0
  0
VERTEX
  5
C84
  8
PROFILE
 10
5.767218498883707
 20
0.0791374081209862
 30
0.0
  0
VERTEX
  5
C85
  8
PROFILE
 10
5.772204447993191
 20
0.0864301896851252
 30
0.0
  0
VERTEX
  5
C86
  8
PROFILE
 10
5.776525603888079
 20
0.0936299001992205
 30
0.0
  0
VERTEX
  5
C87
  8
PROFILE
 10
5.780181966568366
 20
0.1007365396632721
 30
0.0
  0
VERTEX
  5
C88
  8
PROFILE
 10
5.783173536034057
 20
0.1077501080772799
 30
0.0
  0
VERTEX
  5
C89
  8
PROFILE
 10
5.78550031228515
 20
0.1146706054412441
 30
0.0
  0
VERTEX
  5
C8A
  8
PROFILE
 10
5.787162295321645
 20
0.1214980317551645
 30
0.0
  0
VERTEX
  5
C8B
  8
PROFILE
 10
5.788159485143541
 20
0.1282323870190413
 30
0.0
  0
VERTEX
  5
C8C
  8
PROFILE
 10
5.78849188175084
 20
0.1348736712328744
 30
0.0
  0
VERTEX
  5
C8D
  8
PROFILE
 10
5.788162809109614
 20
0.1418706198165173
 30
0.0
  0
VERTEX
  5
C8E
  8
PROFILE
 10
5.787175591185937
 20
0.148608299046467
 30
0.0
  0
VERTEX
  5
C8F
  8
PROFILE
 10
5.785530227979807
 20
0.1550867089227236
 30
0.0
  0
VERTEX
  5
C90
  8
PROFILE
 10
5.783226719491225
 20
0.1613058494452869
 30
0.0
  0
VERTEX
  5
C91
  8
PROFILE
 10
5.780265065720192
 20
0.1672657206141571
 30
0.0
  0
VERTEX
  5
C92
  8
PROFILE
 10
5.776645266666707
 20
0.1729663224293341
 30
0.0
  0
VERTEX
  5
C93
  8
PROFILE
 10
5.772367322330767
 20
0.1784076548908179
 30
0.0
  0
VERTEX
  5
C94
  8
PROFILE
 10
5.767431232712378
 20
0.1835897179986086
 30
0.0
  0
VERTEX
  5
C95
  8
PROFILE
 10
5.761996548183041
 20
0.1883263696526186
 30
0.0
  0
VERTEX
  5
C96
  8
PROFILE
 10
5.756222819114258
 20
0.1924314677527607
 30
0.0
  0
VERTEX
  5
C97
  8
PROFILE
 10
5.75011004550603
 20
0.1959050122990347
 30
0.0
  0
VERTEX
  5
C98
  8
PROFILE
 10
5.743658227358358
 20
0.1987470032914407
 30
0.0
  0
VERTEX
  5
C99
  8
PROFILE
 10
5.73686736467124
 20
0.2009574407299788
 30
0.0
  0
VERTEX
  5
C9A
  8
PROFILE
 10
5.729737457444678
 20
0.2025363246146488
 30
0.0
  0
VERTEX
  5
C9B
  8
PROFILE
 10
5.72226850567867
 20
0.2034836549454508
 30
0.0
  0
VERTEX
  5
C9C
  8
PROFILE
 10
5.714460509373218
 20
0.2037994317223848
 30
0.0
  0
VERTEX
  5
C9D
  8
PROFILE
 10
5.706353356121197
 20
0.2034736830472318
 30
0.0
  0
VERTEX
  5
C9E
  8
PROFILE
 10
5.698625135001496
 20
0.2024964370217729
 30
0.0
  0
VERTEX
  5
C9F
  8
PROFILE
 10
5.691275846014115
 20
0.200867693646008
 30
0.0
  0
VERTEX
  5
CA0
  8
PROFILE
 10
5.684305489159057
 20
0.1985874529199372
 30
0.0
  0
VERTEX
  5
CA1
  8
PROFILE
 10
5.677714064436318
 20
0.1956557148435605
 30
0.0
  0
VERTEX
  5
CA2
  8
PROFILE
 10
5.671501571845901
 20
0.1920724794168778
 30
0.0
  0
VERTEX
  5
CA3
  8
PROFILE
 10
5.665668011387805
 20
0.1878377466398892
 30
0.0
  0
VERTEX
  5
CA4
  8
PROFILE
 10
5.660213383062029
 20
0.1829515165125946
 30
0.0
  0
VERTEX
  5
CA5
  8
PROFILE
 10
5.655164278597157
 20
0.1772409427991986
 30
0.0
  0
VERTEX
  5
CA6
  8
PROFILE
 10
5.650547289721775
 20
0.1705331792639058
 30
0.0
  0
VERTEX
  5
CA7
  8
PROFILE
 10
5.64636241643588
 20
0.1628282259067161
 30
0.0
  0
VERTEX
  5
CA8
  8
PROFILE
 10
5.642609658739476
 20
0.1541260827276296
 30
0.0
  0
VERTEX
  5
CA9
  8
PROFILE
 10
5.639289016632559
 20
0.1444267497266462
 30
0.0
  0
VERTEX
  5
CAA
  8
PROFILE
 10
5.636400490115133
 20
0.133730226903766
 30
0.0
  0
VERTEX
  5
CAB
  8
PROFILE
 10
5.633944079187193
 20
0.1220365142589889
 30
0.0
  0
VERTEX
  5
CAC
  8
PROFILE
 10
5.631919783848742
 20
0.1093456117923149
 30
0.0
  0
VERTEX
  5
CAD
  8
PROFILE
 10
5.458328979652938
 20
0.1233860444846225
 30
0.0
  0
VERTEX
  5
CAE
  8
PROFILE
 10
5.461147702882833
 20
0.1411792348733354
 30
0.0
  0
VERTEX
  5
CAF
  8
PROFILE
 10
5.464498260684406
 20
0.1579685875080054
 30
0.0
  0
VERTEX
  5
CB0
  8
PROFILE
 10
5.468380653057658
 20
0.1737541023886326
 30
0.0
  0
VERTEX
  5
CB1
  8
PROFILE
 10
5.472794880002589
 20
0.188535779515217
 30
0.0
  0
VERTEX
  5
CB2
  8
PROFILE
 10
5.477740941519196
 20
0.2023136188877585
 30
0.0
  0
VERTEX
  5
CB3
  8
PROFILE
 10
5.483218837607483
 20
0.2150876205062572
 30
0.0
  0
VERTEX
  5
CB4
  8
PROFILE
 10
5.489228568267448
 20
0.2268577843707131
 30
0.0
  0
VERTEX
  5
CB5
  8
PROFILE
 10
5.495770133499092
 20
0.2376241104811261
 30
0.0
  0
VERTEX
  5
CB6
  8
PROFILE
 10
5.50292663245424
 20
0.2475893607679486
 30
0.0
  0
VERTEX
  5
CB7
  8
PROFILE
 10
5.510781164284714
 20
0.256956297161633
 30
0.0
  0
VERTEX
  5
CB8
  8
PROFILE
 10
5.519333728990516
 20
0.2657249196621794
 30
0.0
  0
VERTEX
  5
CB9
  8
PROFILE
 10
5.528584326571645
 20
0.2738952282695876
 30
0.0
  0
VERTEX
  5
CBA
  8
PROFILE
 10
5.538532957028103
 20
0.2814672229838577
 30
0.0
  0
VERTEX
  5
CBB
  8
PROFILE
 10
5.549179620359888
 20
0.2884409038049898
 30
0.0
  0
VERTEX
  5
CBC
  8
PROFILE
 10
5.560524316567001
 20
0.2948162707329837
 30
0.0
  0
VERTEX
  5
CBD
  8
PROFILE
 10
5.572567045649442
 20
0.3005933237678394
 30
0.0
  0
VERTEX
  5
CBE
  8
PROFILE
 10
5.585553781096612
 20
0.3057288513506082
 30
0.0
  0
VERTEX
  5
CBF
  8
PROFILE
 10
5.599730496397912
 20
0.3101796419223412
 30
0.0
  0
VERTEX
  5
CC0
  8
PROFILE
 10
5.615097191553343
 20
0.3139456954830383
 30
0.0
  0
VERTEX
  5
CC1
  8
PROFILE
 10
5.631653866562903
 20
0.3170270120326995
 30
0.0
  0
VERTEX
  5
CC2
  8
PROFILE
 10
5.649400521426594
 20
0.3194235915713249
 30
0.0
  0
VERTEX
  5
CC3
  8
PROFILE
 10
5.668337156144414
 20
0.3211354340989145
 30
0.0
  0
VERTEX
  5
CC4
  8
PROFILE
 10
5.688463770716366
 20
0.3221625396154683
 30
0.0
  0
VERTEX
  5
CC5
  8
PROFILE
 10
5.709780365142448
 20
0.3225049081209862
 30
0.0
  0
VERTEX
  5
CC6
  8
PROFILE
 10
5.732014374204674
 20
0.3221791594458332
 30
0.0
  0
VERTEX
  5
CC7
  8
PROFILE
 10
5.752978628227019
 20
0.3212019134203743
 30
0.0
  0
VERTEX
  5
CC8
  8
PROFILE
 10
5.772673127209481
 20
0.3195731700446095
 30
0.0
  0
VERTEX
  5
CC9
  8
PROFILE
 10
5.791097871152063
 20
0.3172929293185387
 30
0.0
  0
VERTEX
  5
CCA
  8
PROFILE
 10
5.808252860054762
 20
0.314361191242162
 30
0.0
  0
VERTEX
  5
CCB
  8
PROFILE
 10
5.824138093917579
 20
0.3107779558154793
 30
0.0
  0
VERTEX
  5
CCC
  8
PROFILE
 10
5.838753572740513
 20
0.3065432230384906
 30
0.0
  0
VERTEX
  5
CCD
  8
PROFILE
 10
5.852099296523567
 20
0.3016569929111961
 30
0.0
  0
VERTEX
  5
CCE
  8
PROFILE
 10
5.864471098247234
 20
0.2960959976710846
 30
0.0
  0
VERTEX
  5
CCF
  8
PROFILE
 10
5.876164810892012
 20
0.2898369695556454
 30
0.0
  0
VERTEX
  5
CD0
  8
PROFILE
 10
5.887180434457898
 20
0.2828799085648783
 30
0.0
  0
VERTEX
  5
CD1
  8
PROFILE
 10
5.897517968944896
 20
0.2752248146987835
 30
0.0
  0
VERTEX
  5
CD2
  8
PROFILE
 10
5.907177414353004
 20
0.2668716879573608
 30
0.0
  0
VERTEX
  5
CD3
  8
PROFILE
 10
5.916158770682221
 20
0.2578205283406104
 30
0.0
  0
VERTEX
  5
CD4
  8
PROFILE
 10
5.92446203793255
 20
0.2480713358485322
 30
0.0
  0
VERTEX
  5
CD5
  8
PROFILE
 10
5.932087216103987
 20
0.2376241104811261
 30
0.0
  0
VERTEX
  5
CD6
  8
PROFILE
 10
5.938917966383981
 20
0.2266649943384796
 30
0.0
  0
VERTEX
  5
CD7
  8
PROFILE
 10
5.944837949959975
 20
0.2153801295206803
 30
0.0
  0
VERTEX
  5
CD8
  8
PROFILE
 10
5.949847166831971
 20
0.2037695160277279
 30
0.0
  0
VERTEX
  5
CD9
  8
PROFILE
 10
5.953945616999966
 20
0.1918331538596226
 30
0.0
  0
VERTEX
  5
CDA
  8
PROFILE
 10
5.957133300463963
 20
0.1795710430163643
 30
0.0
  0
VERTEX
  5
CDB
  8
PROFILE
 10
5.959410217223961
 20
0.166983183497953
 30
0.0
  0
VERTEX
  5
CDC
  8
PROFILE
 10
5.960776367279959
 20
0.1540695753043888
 30
0.0
  0
VERTEX
  5
CDD
  8
PROFILE
 10
5.961231750631959
 20
0.1408302184356715
 30
0.0
  0
VERTEX
  5
CDE
  8
PROFILE
 10
5.960709887958499
 20
0.1266568271004442
 30
0.0
  0
VERTEX
  5
CDF
  8
PROFILE
 10
5.959144299938122
 20
0.1126429861367204
 30
0.0
  0
VERTEX
  5
CE0
  8
PROFILE
 10
5.956534986570825
 20
0.0987886955445001
 30
0.0
  0
VERTEX
  5
CE1
  8
PROFILE
 10
5.952881947856609
 20
0.0850939553237834
 30
0.0
  0
VERTEX
  5
CE2
  8
PROFILE
 10
5.948185183795475
 20
0.0715587654745701
 30
0.0
  0
VERTEX
  5
CE3
  8
PROFILE
 10
5.942444694387422
 20
0.0581831259968603
 30
0.0
  0
VERTEX
  5
CE4
  8
PROFILE
 10
5.93566047963245
 20
0.044967036890654
 30
0.0
  0
VERTEX
  5
CE5
  8
PROFILE
 10
5.92783253953056
 20
0.0319104981559512
 30
0.0
  0
VERTEX
  5
CE6
  8
PROFILE
 10
5.923444073322695
 20
0.0253822287885998
 30
0.0
  0
VERTEX
  5
CE7
  8
PROFILE
 10
5.918628477474453
 20
0.0187741842354966
 30
0.0
  0
VERTEX
  5
CE8
  8
PROFILE
 10
5.907715896856828
 20
0.0053187695720351
 30
0.0
  0
VERTEX
  5
CE9
  8
PROFILE
 10
5.895094797677687
 20
-0.0084557458344334
 30
0.0
  0
VERTEX
  5
CEA
  8
PROFILE
 10
5.880765179937029
 20
-0.022549361983909
 30
0.0
  0
VERTEX
  5
CEB
  8
PROFILE
 10
5.864727043634854
 20
-0.0369620788763915
 30
0.0
  0
VERTEX
  5
CEC
  8
PROFILE
 10
5.846980388771163
 20
-0.051693896511881
 30
0.0
  0
VERTEX
  5
CED
  8
PROFILE
 10
5.827525215345956
 20
-0.0667448148903775
 30
0.0
  0
VERTEX
  5
CEE
  8
PROFILE
 10
5.806361523359231
 20
-0.082114834011881
 30
0.0
  0
VERTEX
  5
CEF
  8
PROFILE
 10
5.76269790502444
 20
-0.112854872254888
 30
0.0
  0
VERTEX
  5
CF0
  8
PROFILE
 10
5.747367773495814
 20
-0.1241563569030524
 30
0.0
  0
VERTEX
  5
CF1
  8
PROFILE
 10
5.736372093726365
 20
-0.1327454852356572
 30
0.0
  0
VERTEX
  5
CF2
  8
PROFILE
 10
5.727158059772037
 20
-0.1405368617107446
 30
0.0
  0
VERTEX
  5
CF3
  8
PROFILE
 10
5.717172865688777
 20
-0.1494450907863565
 30
0.0
  0
VERTEX
  5
CF4
  8
PROFILE
 10
5.694888997135456
 20
-0.1706121067391538
 30
0.0
  0
VERTEX
  5
CF5
  8
PROFILE
 10
5.965486427205386
 20
-0.1706121067391538
 30
0.0
  0
SEQEND
  5
E6B
  8
PROFILE
  0
POLYLINE
  5
140
  8
PROFILE
 66
     1
 10
0.0
 20
0.0
 30
0.0
 70
     1
  0
VERTEX
  5
CF6
  8
PROFILE
 10
6.109719963044546
 20
0.3118682166874198
 30
0.0
  0
VERTEX
  5
CF7
  8
PROFILE
 10
6.521147187694895
 20
0.3118682166874198
 30
0.0
  0
VERTEX
  5
CF8
  8
PROFILE
 10
6.521147187694895
 20
0.1735912280510561
 30
0.0
  0
VERTEX
  5
CF9
  8
PROFILE
 10
6.242465872135455
 20
0.1735912280510561
 30
0.0
  0
VERTEX
  5
CFA
  8
PROFILE
 10
6.227574504128462
 20
0.0799883434356715
 30
0.0
  0
VERTEX
  5
CFB
  8
PROFILE
 10
6.242000516885236
 20
0.0863703582958114
 30
0.0
  0
VERTEX
  5
CFC
  8
PROFILE
 10
6.25634675445626
 20
0.0919014378412659
 30
0.0
  0
VERTEX
  5
CFD
  8
PROFILE
 10
6.270613216841531
 20
0.0965815820720352
 30
0.0
  0
VERTEX
  5
CFE
  8
PROFILE
 10
6.28479990404105
 20
0.1004107909881191
 30
0.0
  0
VERTEX
  5
CFF
  8
PROFILE
 10
6.298906816054816
 20
0.1033890645895176
 30
0.0
  0
VERTEX
  5
D00
  8
PROFILE
 10
6.312933952882832
 20
0.1055164028762309
 30
0.0
  0
VERTEX
  5
D01
  8
PROFILE
 10
6.326881314525096
 20
0.1067928058482589
 30
0.0
  0
VERTEX
  5
D02
  8
PROFILE
 10
6.340748900981609
 20
0.1072182735056015
 30
0.0
  0
VERTEX
  5
D03
  8
PROFILE
 10
6.352311316966503
 20
0.1069972297617477
 30
0.0
  0
VERTEX
  5
D04
  8
PROFILE
 10
6.363597843767339
 20
0.1063340985301863
 30
0.0
  0
VERTEX
  5
D05
  8
PROFILE
 10
6.374608481384117
 20
0.1052288798109173
 30
0.0
  0
VERTEX
  5
D06
  8
PROFILE
 10
6.385343229816836
 20
0.1036815736039407
 30
0.0
  0
VERTEX
  5
D07
  8
PROFILE
 10
6.395802089065498
 20
0.1016921799092565
 30
0.0
  0
VERTEX
  5
D08
  8
PROFILE
 10
6.405985059130101
 20
0.0992606987268647
 30
0.0
  0
VERTEX
  5
D09
  8
PROFILE
 10
6.415892140010646
 20
0.0963871300567652
 30
0.0
  0
VERTEX
  5
D0A
  8
PROFILE
 10
6.425523331707133
 20
0.0930714738989582
 30
0.0
  0
VERTEX
  5
D0B
  8
PROFILE
 10
6.434878634219562
 20
0.0893137302534436
 30
0.0
  0
VERTEX
  5
D0C
  8
PROFILE
 10
6.443958047547933
 20
0.0851138991202213
 30
0.0
  0
VERTEX
  5
D0D
  8
PROFILE
 10
6.452761571692246
 20
0.0804719804992915
 30
0.0
  0
VERTEX
  5
D0E
  8
PROFILE
 10
6.4612892066525
 20
0.075387974390654
 30
0.0
  0
VERTEX
  5
D0F
  8
PROFILE
 10
6.469540952428696
 20
0.0698618807943089
 30
0.0
  0
VERTEX
  5
D10
  8
PROFILE
 10
6.477516809020835
 20
0.0638936997102562
 30
0.0
  0
VERTEX
  5
D11
  8
PROFILE
 10
6.485216776428915
 20
0.057483431138496
 30
0.0
  0
VERTEX
  5
D12
  8
PROFILE
 10
6.492640854652937
 20
0.0506310750790281
 30
0.0
  0
VERTEX
  5
D13
  8
PROFILE
 10
6.499699296608931
 20
0.0434429984461883
 30
0.0
  0
VERTEX
  5
D14
  8
PROFILE
 10
6.506302355212924
 20
0.0360255681543122
 30
0.0
  0
VERTEX
  5
D15
  8
PROFILE
 10
6.512450030464919
 20
0.0283787842033998
 30
0.0
  0
VERTEX
  5
D16
  8
PROFILE
 10
6.518142322364913
 20
0.0205026465934512
 30
0.0
  0
VERTEX
  5
D17
  8
PROFILE
 10
6.523379230912909
 20
0.0123971553244663
 30
0.0
  0
VERTEX
  5
D18
  8
PROFILE
 10
6.528160756108903
 20
0.0040623103964451
 30
0.0
  0
VERTEX
  5
D19
  8
PROFILE
 10
6.5324868979529
 20
-0.0045018881906124
 30
0.0
  0
VERTEX
  5
D1A
  8
PROFILE
 10
6.536357656444896
 20
-0.0132954404367062
 30
0.0
  0
VERTEX
  5
D1B
  8
PROFILE
 10
6.539773031584893
 20
-0.0223183463418362
 30
0.0
  0
VERTEX
  5
D1C
  8
PROFILE
 10
6.54273302337289
 20
-0.0315706059060025
 30
0.0
  0
VERTEX
  5
D1D
  8
PROFILE
 10
6.545237631808888
 20
-0.0410522191292051
 30
0.0
  0
VERTEX
  5
D1E
  8
PROFILE
 10
6.547286856892885
 20
-0.0507631860114439
 30
0.0
  0
VERTEX
  5
D1F
  8
PROFILE
 10
6.548880698624885
 20
-0.0607035065527191
 30
0.0
  0
VERTEX
  5
D20
  8
PROFILE
 10
6.550019157004883
 20
-0.0708731807530305
 30
0.0
  0
VERTEX
  5
D21
  8
PROFILE
 10
6.550702232032883
 20
-0.0812722086123782
 30
0.0
  0
VERTEX
  5
D22
  8
PROFILE
 10
6.550929923708882
 20
-0.0919005901307621
 30
0.0
  0
VERTEX
  5
D23
  8
PROFILE
 10
6.550461244492591
 20
-0.1069315647128207
 30
0.0
  0
VERTEX
  5
D24
  8
PROFILE
 10
6.549055206843716
 20
-0.1218162847876677
 30
0.0
  0
VERTEX
  5
D25
  8
PROFILE
 10
6.546711810762259
 20
-0.1365547503553032
 30
0.0
  0
VERTEX
  5
D26
  8
PROFILE
 10
6.543431056248217
 20
-0.1511469614157272
 30
0.0
  0
VERTEX
  5
D27
  8
PROFILE
 10
6.539212943301594
 20
-0.1655929179689396
 30
0.0
  0
VERTEX
  5
D28
  8
PROFILE
 10
6.534057471922386
 20
-0.1798926200149404
 30
0.0
  0
VERTEX
  5
D29
  8
PROFILE
 10
6.527964642110597
 20
-0.1940460675537298
 30
0.0
  0
VERTEX
  5
D2A
  8
PROFILE
 10
6.520934453866224
 20
-0.2080532605853076
 30
0.0
  0
VERTEX
  5
D2B
  8
PROFILE
 10
6.513043358408947
 20
-0.2215751545702289
 30
0.0
  0
VERTEX
  5
D2C
  8
PROFILE
 10
6.504367806958444
 20
-0.2342727049690489
 30
0.0
  0
VERTEX
  5
D2D
  8
PROFILE
 10
6.494907799514716
 20
-0.2461459117817674
 30
0.0
  0
VERTEX
  5
D2E
  8
PROFILE
 10
6.484663336077762
 20
-0.2571947750083846
 30
0.0
  0
VERTEX
  5
D2F
  8
PROFILE
 10
6.473634416647584
 20
-0.2674192946489002
 30
0.0
  0
VERTEX
  5
D30
  8
PROFILE
 10
6.461821041224179
 20
-0.2768194707033146
 30
0.0
  0
VERTEX
  5
D31
  8
PROFILE
 10
6.449223209807549
 20
-0.2853953031716275
 30
0.0
  0
VERTEX
  5
D32
  8
PROFILE
 10
6.435840922397693
 20
-0.2931467920538391
 30
0.0
  0
VERTEX
  5
D33
  8
PROFILE
 10
6.428833170924314
 20
-0.2967017737689014
 30
0.0
  0
VERTEX
  5
D34
  8
PROFILE
 10
6.421584431910642
 20
-0.3000274018249274
 30
0.0
  0
VERTEX
  5
D35
  8
PROFILE
 10
6.414094705356678
 20
-0.3031236762219172
 30
0.0
  0
VERTEX
  5
D36
  8
PROFILE
 10
6.406363991262422
 20
-0.3059905969598706
 30
0.0
  0
VERTEX
  5
D37
  8
PROFILE
 10
6.390179600453036
 20
-0.3110363774586686
 30
0.0
  0
VERTEX
  5
D38
  8
PROFILE
 10
6.373031259482483
 20
-0.3151647433213216
 30
0.0
  0
VERTEX
  5
D39
  8
PROFILE
 10
6.354918968350763
 20
-0.3183756945478295
 30
0.0
  0
VERTEX
  5
D3A
  8
PROFILE
 10
6.335842727057877
 20
-0.3206692311381922
 30
0.0
  0
VERTEX
  5
D3B
  8
PROFILE
 10
6.315802535603822
 20
-0.3220453530924099
 30
0.0
  0
VERTEX
  5
D3C
  8
PROFILE
 10
6.294798393988602
 20
-0.3225040604104825
 30
0.0
  0
VERTEX
  5
D3D
  8
PROFILE
 10
6.279651080593989
 20
-0.322321242276468
 30
0.0
  0
VERTEX
  5
D3E
  8
PROFILE
 10
6.265055545567492
 20
-0.3217727878744248
 30
0.0
  0
VERTEX
  5
D3F
  8
PROFILE
 10
6.251011788909111
 20
-0.3208586972043527
 30
0.0
  0
VERTEX
  5
D40
  8
PROFILE
 10
6.237519810618847
 20
-0.3195789702662517
 30
0.0
  0
VERTEX
  5
D41
  8
PROFILE
 10
6.224579610696699
 20
-0.317933607060122
 30
0.0
  0
VERTEX
  5
D42
  8
PROFILE
 10
6.212191189142667
 20
-0.3159226075859632
 30
0.0
  0
VERTEX
  5
D43
  8
PROFILE
 10
6.200354545956751
 20
-0.3135459718437758
 30
0.0
  0
VERTEX
  5
D44
  8
PROFILE
 10
6.189069681138951
 20
-0.3108036998335594
 30
0.0
  0
VERTEX
  5
D45
  8
PROFILE
 10
6.178266791401734
 20
-0.3076991155213872
 30
0.0
  0
VERTEX
  5
D46
  8
PROFILE
 10
6.16787607345757
 20
-0.3042355428733321
 30
0.0
  0
VERTEX
  5
D47
  8
PROFILE
 10
6.157897527306455
 20
-0.3004129818893941
 30
0.0
  0
VERTEX
  5
D48
  8
PROFILE
 10
6.148331152948392
 20
-0.2962314325695733
 30
0.0
  0
VERTEX
  5
D49
  8
PROFILE
 10
6.139176950383378
 20
-0.2916908949138697
 30
0.0
  0
VERTEX
  5
D4A
  8
PROFILE
 10
6.130434919611417
 20
-0.2867913689222831
 30
0.0
  0
VERTEX
  5
D4B
  8
PROFILE
 10
6.122105060632505
 20
-0.2815328545948137
 30
0.0
  0
VERTEX
  5
D4C
  8
PROFILE
 10
6.114187373446644
 20
-0.2759153519314614
 30
0.0
  0
VERTEX
  5
D4D
  8
PROFILE
 10
6.106658590291321
 20
-0.2700219600840511
 30
0.0
  0
VERTEX
  5
D4E
  8
PROFILE
 10
6.099495443404029
 20
-0.2639357782044073
 30
0.0
  0
VERTEX
  5
D4F
  8
PROFILE
 10
6.092697932784766
 20
-0.2576568062925301
 30
0.0
  0
VERTEX
  5
D50
  8
PROFILE
 10
6.086266058433531
 20
-0.2511850443484195
 30
0.0
  0
VERTEX
  5
D51
  8
PROFILE
 10
6.080199820350324
 20
-0.2445204923720755
 30
0.0
  0
VERTEX
  5
D52
  8
PROFILE
 10
6.074499218535148
 20
-0.2376631503634982
 30
0.0
  0
VERTEX
  5
D53
  8
PROFILE
 10
6.069164252988
 20
-0.2306130183226874
 30
0.0
  0
VERTEX
  5
D54
  8
PROFILE
 10
6.064194923708881
 20
-0.2233700962496433
 30
0.0
  0
VERTEX
  5
D55
  8
PROFILE
 10
6.059508131545966
 20
-0.2158047494675192
 30
0.0
  0
VERTEX
  5
D56
  8
PROFILE
 10
6.05502077734743
 20
-0.2077873432994685
 30
0.0
  0
VERTEX
  5
D57
  8
PROFILE
 10
6.050732861113274
 20
-0.1993178777454912
 30
0.0
  0
VERTEX
  5
D58
  8
PROFILE
 10
6.046644382843496
 20
-0.1903963528055873
 30
0.0
  0
VERTEX
  5
D59
  8
PROFILE
 10
6.042755342538099
 20
-0.1810227684797569
 30
0.0
  0
VERTEX
  5
D5A
  8
PROFILE
 10
6.03906574019708
 20
-0.1711971247679999
 30
0.0
  0
VERTEX
  5
D5B
  8
PROFILE
 10
6.035575575820442
 20
-0.1609194216703163
 30
0.0
  0
VERTEX
  5
D5C
  8
PROFILE
 10
6.032284849408182
 20
-0.1501896591867062
 30
0.0
  0
VERTEX
  5
D5D
  8
PROFILE
 10
6.207577524233357
 20
-0.1310436146062866
 30
0.0
  0
VERTEX
  5
D5E
  8
PROFILE
 10
6.209438945234231
 20
-0.1412581623485833
 30
0.0
  0
VERTEX
  5
D5F
  8
PROFILE
 10
6.211832200806783
 20
-0.1508411565370121
 30
0.0
  0
VERTEX
  5
D60
  8
PROFILE
 10
6.214757290951014
 20
-0.1597925971715729
 30
0.0
  0
VERTEX
  5
D61
  8
PROFILE
 10
6.218214215666923
 20
-0.1681124842522656
 30
0.0
  0
VERTEX
  5
D62
  8
PROFILE
 10
6.22220297495451
 20
-0.1758008177790904
 30
0.0
  0
VERTEX
  5
D63
  8
PROFILE
 10
6.226723568813776
 20
-0.1828575977520471
 30
0.0
  0
VERTEX
  5
D64
  8
PROFILE
 10
6.23177599724472
 20
-0.1892828241711358
 30
0.0
  0
VERTEX
  5
D65
  8
PROFILE
 10
6.237360260247343
 20
-0.1950764970363565
 30
0.0
  0
VERTEX
  5
D66
  8
PROFILE
 10
6.243350047110869
 20
-0.2002120246191254
 30
0.0
  0
VERTEX
  5
D67
  8
PROFILE
 10
6.249619047124527
 20
-0.2046628151908583
 30
0.0
  0
VERTEX
  5
D68
  8
PROFILE
 10
6.256167260288317
 20
-0.2084288687515554
 30
0.0
  0
VERTEX
  5
D69
  8
PROFILE
 10
6.262994686602237
 20
-0.2115101853012167
 30
0.0
  0
VERTEX
  5
D6A
  8
PROFILE
 10
6.270101326066289
 20
-0.2139067648398421
 30
0.0
  0
VERTEX
  5
D6B
  8
PROFILE
 10
6.277487178680472
 20
-0.2156186073674317
 30
0.0
  0
VERTEX
  5
D6C
  8
PROFILE
 10
6.285152244444786
 20
-0.2166457128839855
 30
0.0
  0
VERTEX
  5
D6D
  8
PROFILE
 10
6.293096523359231
 20
-0.2169880813895034
 30
0.0
  0
VERTEX
  5
D6E
  8
PROFILE
 10
6.301941597079456
 20
-0.2165592897660878
 30
0.0
  0
VERTEX
  5
D6F
  8
PROFILE
 10
6.310394442803068
 20
-0.2152729148958408
 30
0.0
  0
VERTEX
  5
D70
  8
PROFILE
 10
6.318455060530068
 20
-0.2131289567787626
 30
0.0
  0
VERTEX
  5
D71
  8
PROFILE
 10
6.326123450260455
 20
-0.2101274154148531
 30
0.0
  0
VERTEX
  5
D72
  8
PROFILE
 10
6.33339961199423
 20
-0.2062682908041122
 30
0.0
  0
VERTEX
  5
D73
  8
PROFILE
 10
6.34028354573139
 20
-0.2015515829465401
 30
0.0
  0
VERTEX
  5
D74
  8
PROFILE
 10
6.346775251471939
 20
-0.1959772918421367
 30
0.0
  0
VERTEX
  5
D75
  8
PROFILE
 10
6.352874729215874
 20
-0.189545417490902
 30
0.0
  0
VERTEX
  5
D76
  8
PROFILE
 10
6.358409132727401
 20
-0.182262607824982
 30
0.0
  0
VERTEX
  5
D77
  8
PROFILE
 10
6.363205615770726
 20
-0.1741355107765226
 30
0.0
  0
VERTEX
  5
D78
  8
PROFILE
 10
6.367264178345846
 20
-0.165164126345524
 30
0.0
  0
VERTEX
  5
D79
  8
PROFILE
 10
6.370584820452763
 20
-0.1553484545319859
 30
0.0
  0
VERTEX
  5
D7A
  8
PROFILE
 10
6.373167542091474
 20
-0.1446884953359086
 30
0.0
  0
VERTEX
  5
D7B
  8
PROFILE
 10
6.375012343261984
 20
-0.1331842487572918
 30
0.0
  0
VERTEX
  5
D7C
  8
PROFILE
 10
6.37611922396429
 20
-0.1208357147961358
 30
0.0
  0
VERTEX
  5
D7D
  8
PROFILE
 10
6.376488184198392
 20
-0.1076428934524404
 30
0.0
  0
VERTEX
  5
D7E
  8
PROFILE
 10
6.376115899998217
 20
-0.0941741829246869
 30
0.0
  0
VERTEX
  5
D7F
  8
PROFILE
 10
6.374999047397693
 20
-0.0816361828973705
 30
0.0
  0
VERTEX
  5
D80
  8
PROFILE
 10
6.373137626396819
 20
-0.0700288933704911
 30
0.0
  0
VERTEX
  5
D81
  8
PROFILE
 10
6.370531636995596
 20
-0.0593523143440488
 30
0.0
  0
VERTEX
  5
D82
  8
PROFILE
 10
6.367181079194022
 20
-0.0496064458180436
 30
0.0
  0
VERTEX
  5
D83
  8
PROFILE
 10
6.363085952992098
 20
-0.0407912877924754
 30
0.0
  0
VERTEX
  5
D84
  8
PROFILE
 10
6.358246258389825
 20
-0.0329068402673443
 30
0.0
  0
VERTEX
  5
D85
  8
PROFILE
 10
6.352661995387203
 20
-0.0259531032426502
 30
0.0
  0
VERTEX
  5
D86
  8
PROFILE
 10
6.346459474695004
 20
-0.0198702453290794
 30
0.0
  0
VERTEX
  5
D87
  8
PROFILE
 10
6.339765007024004
 20
-0.0145984351373181
 30
0.0
  0
VERTEX
  5
D88
  8
PROFILE
 10
6.332578592374201
 20
-0.0101376726673661
 30
0.0
  0
VERTEX
  5
D89
  8
PROFILE
 10
6.324900230745595
 20
-0.0064879579192236
 30
0.0
  0
VERTEX
  5
D8A
  8
PROFILE
 10
6.316729922138187
 20
-0.0036492908928906
 30
0.0
  0
VERTEX
  5
D8B
  8
PROFILE
 10
6.308067666551976
 20
-0.001621671588367
 30
0.0
  0
VERTEX
  5
D8C
  8
PROFILE
 10
6.298913463986963
 20
-0.0004051000056528
 30
0.0
  0
VERTEX
  5
D8D
  8
PROFILE
 10
6.289267314443147
 20
0.0000004238552519
 30
0.0
  0
VERTEX
  5
D8E
  8
PROFILE
 10
6.283018258225926
 20
-0.0001923661769815
 30
0.0
  0
VERTEX
  5
D8F
  8
PROFILE
 10
6.276822385465874
 20
-0.0007707362736817
 30
0.0
  0
VERTEX
  5
D90
  8
PROFILE
 10
6.27067969616299
 20
-0.0017346864348486
 30
0.0
  0
VERTEX
  5
D91
  8
PROFILE
 10
6.264590190317273
 20
-0.0030842166604824
 30
0.0
  0
VERTEX
  5
D92
  8
PROFILE
 10
6.258553867928724
 20
-0.0048193269505829
 30
0.0
  0
VERTEX
  5
D93
  8
PROFILE
 10
6.252570728997343
 20
-0.0069400173051502
 30
0.0
  0
VERTEX
  5
D94
  8
PROFILE
 10
6.24664077352313
 20
-0.0094462877241843
 30
0.0
  0
VERTEX
  5
D95
  8
PROFILE
 10
6.240764001506085
 20
-0.0123381382076851
 30
0.0
  0
VERTEX
  5
D96
  8
PROFILE
 10
6.236349774561154
 20
-0.0147978731016974
 30
0.0
  0
VERTEX
  5
D97
  8
PROFILE
 10
6.231829180701889
 20
-0.0177096673816362
 30
0.0
  0
VERTEX
  5
D98
  8
PROFILE
 10
6.22246889224035
 20
-0.0248894340992936
 30
0.0
  0
VERTEX
  5
D99
  8
PROFILE
 10
6.212683136121469
 20
-0.0338774383606572
 30
0.0
  0
VERTEX
  5
D9A
  8
PROFILE
 10
6.202471912345245
 20
-0.0446736801657271
 30
0.0
  0
VERTEX
  5
D9B
  8
PROFILE
 10
6.054834635247343
 20
-0.0234002972985943
 30
0.0
  0
SEQEND
  5
E6C
  8
PROFILE
  0
ENDSEC
  0
EOF
